Anal Cunt

Anal Cunt

I'm Not That Kind Of Boy
nível sem nível
Into:                   
                                Repeat 2 times 
e|--------------------|-------------------| 
B|-0--0-0-0-0-1-1-0-0-|-0--0-0-0-0-1-1-0-.| 
G|-0--0-0-0-0-0-0-0-0-|-0--0-0-0-0-0-0-0--| 
D|-0--0-0-0-0-2-2-0-0-|-0--0-0-0-0-2-2-0--| 
A|-2--2-2-2-2-3-3-2-2-|-2--2-2-2-2-3-3-2-.| 
E|--------------------|-------------------| 

Verse: 

e|--------------------|------------------|------------------|----------------| 
B|-0--0-0-0-0-1-1-0-0-|-0--0-0-0-0-1-1-0-|-3--3-3-3-3-4-4-3-|-5--5-5-5-5-6-5.| 
G|-0--0-0-0-0-0-0-0-0-|-0--0-0-0-0-0-0-0-|-3--3-3-3-3-3-3-3-|-5--5-5-5-5-5-5-| 
D|-0--0-0-0-0-2-2-0-0-|-0--0-0-0-0-2-2-0-|-3--3-3-3-3-3-3-3-|-5--5-5-5-5-5-5-| 
A|-2--2-2-2-2-3-3-2-2-|-2--2-2-2-2-3-3-2-|------------------|---------------.| 
E|--------------------|------------------|------------------|----------------| 

Chorus: 

e|-----------------|------------------| 
B|--10-10-10-10--9-|-5--8-7--7-7-7-7-.| 
G|--10-10-10-10--9-|-5--8-7--8-7-7-7--| 
D|--10-10-10-10--9-|-5--8-7--7-7-7-7--| 
A|-----------------|-----------------.| 
E|-----------------|------------------| 

Ending Chord: 

e|---| B|-0-| G|-0-| D|-0-| A|-2-| E|---|

Enviado por: Rene Junior

Corrigido por: sem correções