Cifras e Tablaturas
Anderson .Paak

Anderson .Paak

Come Down

Cifras Cancelar Versão de Impressão
cifras

Anderson .Paak - Come Down

fixar na tela  
Exibindo: vídeo-aula ver clipes redimensionar

Tom:

  
Intro 
E|-----------------|---------6-6-6---|---------6-6-6---|---------6-6-6---| 
B|-----------------|---------6-6-6---|---------6-6-6---|---------6-6-6---| 
G|-----------------|---------3-3-3---|---------3-3-3---|---------3-3-3---| x2 
D|-----------------|-----------------|-----------------|-----------------|  
A|-----------------|-----------------|-----------------|-----------------| 
E|-----------------|-----------------|-----------------|-----------------| 

verse 1 
E|---------------------|---------6-6-6---|---------6-6-6---|-----------6-6-6---| 
B|---------------------|---------6-6-6---|---------6-6-6---|-----------6-6-6---| 
G|---------------------|---------3-3-3---|---------3-3-3---|-----------3-3-3---| x2 
D|---------------1-2-3-|-1---------------|-4--3------------|-------------------|  
A|-1-x-x-3---4-4-------|----4--1---------|-------1---------|-4-3---3-1---------| 
E|---------------------|-----------------|-----------------|-----1-------------| 

Pre-Chorus 1 
E|-----------------|---------6-6-6---|---------6-6-6---|---------6-6-6---| 
B|-----------------|---------6-6-6---|---------6-6-6---|---------6-6-6---| 
G|-----------------|---------3-3-3---|---------3-3-3---|---------3-3-3---| 
D|-----------------|-----------------|-----------------|-----------------|  
A|-----------------|-----------------|-----------------|-----------------| 
E|-----------------|-----------------|-----------------|-----------------| 

E|-----------------|---------6-6-6---|---------6-6-6---|-----------6-6-6---| 
B|-----------------|---------6-6-6---|---------6-6-6---|-----------6-6-6---| 
G|-----------------|---------3-3-3---|---------3-3-3---|-----------3-3-3---| 
D|-----------------|-----------------|-4--3------------|-------------------|  
A|-----------------|-----------------|-------1---------|-4-3---3-1---------| 
E|-----------------|-----------------|-----------------|-----1-------------| 

Chorus 1 
E|---------------------|---------6-6-6---|---------6-6-6---|-----------6-6-6---| 
B|---------------------|---------6-6-6---|---------6-6-6---|-----------6-6-6---| 
G|---------------------|---------3-3-3---|---------3-3-3---|-----------3-3-3---| 
D|---------------1-2-3-|-1---------------|-4--3------------|-------------------|  
A|-1-x-x-3---4-4-------|----4--1---------|-------1---------|-4-3---3-1---------| 
E|---------------------|-----------------|-----------------|-----1-------------| 

E|-----------------|---------6-6-6---|---------6-6-6---|---------6-6-6---| 
B|-----------------|---------6-6-6---|---------6-6-6---|---------6-6-6---| 
G|-----------------|---------3-3-3---|---------3-3-3---|---------3-3-3---| 
D|-----------------|-----------------|-----------------|-----------------|  
A|-----------------|-----------------|-----------------|-----------------| 
E|-----------------|-----------------|-----------------|-----------------| 

verse 2 
E|-------------------------|-------------------6-6-6---|---------------6-6-6---|-----------------| 
B|-------------------------|-------------------6-6-6---|---------------6-6-6---|-----------------| 
G|---------------------2-3-|-3-5-6-5-3-2-------3-3-3---|---------------3-3-3---|-----------------| 
D|-x-3-x-3-x-3-x-3-3-4-----|-------------4-3-----------|-x-3-x-3-x-3-x---------|-----------------| 
A|-------------------------|---------------------------|-----------------------|-----------------| 
E|-------------------------|---------------------------|-----------------------|-----------------| 

E|-----------------|---------6-6-6---|---------6-6-6---|---------6-6-6---| 
B|-----------------|---------6-6-6---|---------6-6-6---|---------6-6-6---| 
G|-----------------|---------3-3-3---|---------3-3-3---|---------3-3-3---| 
D|-----------------|-----------------|-----------------|-----------------|  
A|-----------------|-----------------|-----------------|-----------------| 
E|-----------------|-----------------|-----------------|-----------------| 

Pre-Chorus 2 
E|---------------------|---------6-6-6---|---------6-6-6---|-----------6-6-6---| 
B|---------------------|---------6-6-6---|---------6-6-6---|-----------6-6-6---| 
G|---------------------|---------3-3-3---|---------3-3-3---|-----------3-3-3---| x2 
D|---------------1-2-3-|-1---------------|-4--3------------|-------------------|  
A|-1-x-x-3---4-4-------|----4--1---------|-------1---------|-4-3---3-1---------| 
E|---------------------|-----------------|-----------------|-----1-------------| 

Chorus 2 
E|---------------------|---------6-6-6---|---------6-6-6---|-----------6-6-6---| 
B|---------------------|---------6-6-6---|---------6-6-6---|-----------6-6-6---| 
G|---------------------|---------3-3-3---|---------3-3-3---|-----------3-3-3---| 
D|---------------1-2-3-|-1---------------|-4--3------------|-------------------|  
A|-1-x-x-3---4-4-------|----4--1---------|-------1---------|-4-3---3-1---------| 
E|---------------------|-----------------|-----------------|-----1-------------| 

E|-----------------|---------6-6-6---|---------6-6-6---|---------6-6-6---| 
B|-----------------|---------6-6-6---|---------6-6-6---|---------6-6-6---| 
G|-----------------|---------3-3-3---|---------3-3-3---|---------3-3-3---| 
D|-----------------|-----------------|-----------------|-----------------|  
A|-----------------|-----------------|-----------------|-----------------| 
E|-----------------|-----------------|-----------------|-----------------| 

E|-----------------|-----------------|-----------------|-----------------| 
B|-----------------|-----------------|-----------------|-----------------| 
G|-----------------|-----------------|-----------------|-----------------| 
D|-----------------|-----------------|-----------------|-----------------| 
A|-----------------|-----------------|-----------------|-----------------| 
E|-----------------|-----------------|-----------------|-----------------| 

Outro 
E|---------------------|----------18---------|-------------------|---------------------|| 
B|----------16-16/18---|-19-18-19---/18------|-16--16/17\14--14--|/13----13-13/14------|| 
G|-15-17-18------------|---------------------|-------------------|----15----------15---|| 
D|---------------------|---------------------|-------------------|---------------------|| 
A|---------------------|---------------------|-------------------|---------------------|| 
E|---------------------|---------------------|-------------------|---------------------|| 

*********************************** 

| /   Slide-up 
| \   Slide-down 
| x   Dead note 

*********************************** 
  

top 5 | anderson .paak
top rock'n roll
Outras músicas do artista letras do(a) Anderson .Paak
Top cifras »Top artistas »
Petaxxon Comunicação Online
Cifras.com.br - Melhor e mais completo site de cifras e tablaturas do Brasil
Mais de 1 milhão de acordes de músicas cadastradas desde 2003
As informações contidas no nosso site são colaborações de seus usuários e podem conter erros, sendo assim, não nos responsabilizamos sobre nenhuma destas.
close
menos
mais
close
Cor dos acordes:

Cor da letra:

 

save
close
close
 
redimensionar