Cifras e Tablaturas
Andy Grammer

Andy Grammer

Numbers

Cifras Cancelar Versão de Impressão
cifras

Andy Grammer - Numbers

fixar na tela  
Exibindo: vídeo-aula ver clipes redimensionar

Tom:

E

ver outros tons
  
   (Intro) {x4} 
   Eadd9    F#m7     G#m7     A6add9 
e|-0-----------------------------------| 
B|-0--------2--------4--------5--------| 
G|-1--------2--------4--------4--------| 
D|-4--------2--------4--------4--------| 
A|-2--------x--------x--------x--------| 
E|-0--------2--------4--------5--------| 

   (Verse) {x4} 
   Eadd9    F#m7     G#m7     A6add9 
e|-0-----------------------------------| 
B|-0--------2--------4--------5--------| 
G|-1--------2--------4--------4--------| 
D|-4--------2--------4--------4--------| 
A|-2--------x--------x--------x--------| 
E|-0--------2--------4--------5--------| 

   (Chorus) (x3)                           (end with this) 
   E6add9   D6add9   A6       G#m7         E6add9   D6add9   A6       Am7 
e|-------------------7-----------------| |-------------------7-------------| 
B|-7--------5-----------------4--4h5p4-| |-7--------5-----------------5----| 
G|-9--------7--------6--------4--------| |-9--------7--------6--------5----| 
D|-9--------7--------x--------4--------| |-9--------7--------x--------5----| 
A|-x--------x--------7--------x--------| |-x--------x--------7--------x----| 
E|-9--------7--------5--------4--------| |-9--------7--------5--------5----| 

   (Verse) {x4} 
   Eadd9    F#m7     G#m7     A6add9 
e|-0-----------------------------------| 
B|-0--------2--------4--------5--------| 
G|-1--------2--------4--------4--------| 
D|-4--------2--------4--------4--------| 
A|-2--------x--------x--------x--------| 
E|-0--------2--------4--------5--------| 

   (Chorus) (x3)                           (end with this) 
   E6add9   D6add9   A6       G#m7         E6add9   D6add9   A6       Am7 
e|-------------------7-----------------| |-------------------7-------------| 
B|-7--------5-----------------4--4h5p4-| |-7--------5-----------------5----| 
G|-9--------7--------6--------4--------| |-9--------7--------6--------5----| 
D|-9--------7--------x--------4--------| |-9--------7--------x--------5----| 
A|-x--------x--------7--------x--------| |-x--------x--------7--------x----| 
E|-9--------7--------5--------4--------| |-9--------7--------5--------5----| 

   (bridge) {x2} 
   Add9     E6       A6          
e|-0----------------------------------| 
B|-2--------2--------7----------------| 
G|-4--------4--------9----------------| 
D|-2--------2--------7----------------| 
A|-0--------x--------x----------------| 
E|----------4--------9----------------| 

   (solo) 
   Emaj7    C#m7     Badd9               Am7  Eb/D7     
e|-------------------7----12-12-x-12-12------------| 
B|-9--------9--------0-------------------5----7----| 
G|-8--------9--------8-------------------5----5----| 
D|-9--------9--------9-------------------5----7----| 
A|-7--------x--------x-------------------x----6----| 
E|----------9--------9-------------------5---------| 

   (bridge) {x2}                           (second part of the bridge} {x2} 
   Emaj7    C#m7     Badd9    Am7  Eb/D7    Eadd9 
e|-------------------7------------------| |-0--------0--------0-----------------| 
B|-9--------9--------0--------5----7----| |-0--------0--------0-----------------| 
G|-8--------9--------8--------5----5----| |-1--------6--------11----------------| 
D|-9--------9--------9--------5----7----| |-4--------9--------14----------------| 
A|-7--------x--------x--------x----6----| |-2--------7--------12----------------| 
E|----------9--------9--------5---------| |-0--------0--------0-----------------| 

   (outro) {x3} 
   Eadd9    F#m7     G#m7     A6add9 
e|-0-----------------------------------| 
B|-0--------2--------4--------5--------| 
G|-1--------2--------4--------4--------| 
D|-4--------2--------4--------4--------| 
A|-2--------x--------x--------x--------| 
E|-0--------2--------4--------5--------| 
  

cifra enviadasem correções
enviado porenviada por:jessgomes
top 5 | andy grammer
top pop music
Outras músicas do artista letras do(a) Andy Grammer
Top cifras »Top artistas »
Petaxxon Comunicação Online
Cifras.com.br - Melhor e mais completo site de cifras e tablaturas do Brasil
Mais de 1 milhão de acordes de músicas cadastradas desde 2003
As informações contidas no nosso site são colaborações de seus usuários e podem conter erros, sendo assim, não nos responsabilizamos sobre nenhuma destas.
close
menos
mais
close
Cor dos acordes:

Cor da letra:

 

save
close
close
 
redimensionar