Cifras e Tablaturas
Antiseen

Antiseen

I Dont Like You

Cifras Cancelar Versão de Impressão
cifras

Antiseen - I Dont Like You

fixar na tela  
Exibindo: vídeo-aula ver clipes redimensionar

Tom:

  
Intro 
E----------------|----------------|----------------|----------------|----------------| 
B----------------|----------------|----------------|----------------|----------------| 
G-7-7-7-7--5-----|-7-7-7-7--5-----|-7-7-7-7--5-----|-7-7-7-7--5-----|-2--------------| 
D-7-7-7-7--5--5--|-7-7-7-7--5--5--|-7-7-7-7--5--5--|-7-7-7-7--5--5--|-2--------------| 
A-5-5-5-5--3--5--|-5-5-5-5--3--5--|-5-5-5-5--3--5--|-5-5-5-5--3--5--|-0--------------| 
E-------------3--|-------------3--|-------------3--|-------------3--|----------------| 


Verse                              x6 
E------------------------------------| 
B------------------------------------| 
G----------------------------5-------| 
D-7-7-7-7-7-7-7-7-7-7-7-7----5---5---| 
A-7-7-7-7-7-7-7-7-7-7-7-7----3---5---| 
E-5-5-5-5-5-5-5-5-5-5-5-5--------3---| 

Chorus 
E----------------|----------------|----------------|----------------| 
B----------------|----------------|----------------|----------------| 
G-7-7-7-7--5-----|-7-7-7-7--5-----|-7-7-7-7--5-----|-2--------------| 
D-7-7-7-7--5--5--|-7-7-7-7--5--5--|-7-7-7-7--5--5--|-2--------------| 
A-5-5-5-5--3--5--|-5-5-5-5--3--5--|-5-5-5-5--3--5--|-0--------------| 
E-------------3--|-------------3--|-------------3--|----------------| 


Verse                              x6 
E------------------------------------| 
B------------------------------------| 
G----------------------------5-------| 
D-7-7-7-7-7-7-7-7-7-7-7-7----5---5---| 
A-7-7-7-7-7-7-7-7-7-7-7-7----3---5---| 
E-5-5-5-5-5-5-5-5-5-5-5-5--------3---| 


Chorus 
E----------------|----------------|----------------|----------------|----------------| 
B----------------|----------------|----------------|----------------|----------------| 
G-7-7-7-7--5-----|-7-7-7-7--5-----|-7-7-7-7--5-----|----------5-----|-2--------------| 
D-7-7-7-7--5--5--|-7-7-7-7--5--5--|-7-7-7-7--5--5--|-7-7-7-7--5--5--|-2--------------| 
A-5-5-5-5--3--5--|-5-5-5-5--3--5--|-5-5-5-5--3--5--|-7-7-7-7--3--5--|-0--------------| 
E-------------3--|-------------3--|-------------3--|-5-5-5-5-----3--|----------------| 
  

top 5 | antiseen
top rock'n roll
Outras músicas do artista letras do(a) Antiseen
Top cifras »Top artistas »
Petaxxon Comunicação Online
Cifras.com.br - Melhor e mais completo site de cifras e tablaturas do Brasil
Mais de 1 milhão de acordes de músicas cadastradas desde 2003
As informações contidas no nosso site são colaborações de seus usuários e podem conter erros, sendo assim, não nos responsabilizamos sobre nenhuma destas.
close
menos
mais
close
Cor dos acordes:

Cor da letra:

 

save
close
close
 
redimensionar