Cifras e Tablaturas
Antiseen

Antiseen

I'm A Baby Face Killer

Cifras Cancelar Versão de Impressão
cifras

Antiseen - I'm A Baby Face Killer

fixar na tela  
Exibindo: vídeo-aula ver clipes redimensionar

Tom:

  
Intro/Interlude  
E-----------------| 
B-----------------| 
G-9-9-9-9-9-9-9-9-| 
D-9-9-9-9-9-9-9-9-| 
A-7-7-7-7-7-7-7-7-| 
E-----------------| 


Main Riff 
E---------------------| 
B---------------------| 
G---------------------| 
D-7-7-7--5--7-7-7--5--| 
A-7-7-7--5--7-7-7--5--| 
E-5-5-5--3--5-5-5--3--| 


"Break The Rules..." 
E------------------------------------------------------------------| 
B------------------------------------------------------------------| 
G-7--5--7---------------------------7--5--7------------------------| 
D-7--5--7------7-7-7--5--7-7-7--5---7--5--7-----7-7-7--5--7-7-7--5-| 
A-5--3--5------7-7-7--5--7-7-7--5---5--3--5-----7-7-7--5--7-7-7--5-| 
E--------------5-5-5--3--5-5-5--3---------------5-5-5--3--5-5-5--3-| 


Really Ain't much to it, just listen for the order 
  

top 5 | antiseen
top rock'n roll
Outras músicas do artista letras do(a) Antiseen
Top cifras »Top artistas »
Petaxxon Comunicação Online
Cifras.com.br - Melhor e mais completo site de cifras e tablaturas do Brasil
Mais de 1 milhão de acordes de músicas cadastradas desde 2003
As informações contidas no nosso site são colaborações de seus usuários e podem conter erros, sendo assim, não nos responsabilizamos sobre nenhuma destas.
close
menos
mais
close
Cor dos acordes:

Cor da letra:

 

save
close
close
 
redimensionar