Cifras e Tablaturas
Archers of Loaf

Archers of Loaf

Underdogs Of Nipomo

Cifras Cancelar Versão de Impressão
cifras

Archers of Loaf - Underdogs Of Nipomo

fixar na tela  
Exibindo: vídeo-aula ver clipes redimensionar
  Intro 
e|---------------------------------------------------------------------------| 
B|---------------------------------------------------------------------------| 
G|-----------0-------0----------------0-------0------------------------------| 
D|--------------------------0------------------------------------------------| 
A|-------------0-1-1---0-3b---3-3-1-1----------------------------------------| 
D|-0-3-4-5-5----------------------------0-1-1---0-1-1-0-1-2-2-1--------------| 

e|--------------------------------------------------------------0------------| 
B|--------------------------------------------------------------0------------| 
G|-----------0-------0----------------0-------0------------------------------| 
D|--------------------------0------------------------------------------------| 
A|-------------0-1-1---0-3b---3-3-1-1----------------------------------------| 
D|-0-3-4-5-5----------------------------0-1-1---0-1-1-0-1-2-2-1--------------| 

Verse 
e|---------------------------------------------------------------------------| 
B|---------------------------------------------------------------------------| 
G|---------------------------------------------------------------------------| 
D|---------------------------------------------------------------------------| 
A|-8-5-3-1-------------------------------------------------------------------| 
D|-8-5-3-1-------------------------------------------------------------------| 

Bridge 
e|---------------------------------------------------------------------------| 
B|---------------------------------------------------------------------------| 
G|---------------------------------------------------------------------------| 
D|---------------------------------------------------------------------------| 
A|-5-3-1-8-5-3-5-5-3-1-0-1-0-1-0-1-------------------------------------------| 
D|-5-3-1-8-5-3-5-5-3-1-0-1-0-1-0-1-------------------------------------------| 

Chorus 
e|---------------------------------------------------------------------------| 
B|---------------------------------------------------------------------------| 
G|---------------------------------------------------------------------------| 
D|---------------------------------------------------------------------------| 
A|-5-8-10-12-10-8-1-3-1-3-4--------------------------------------------------| 
D|-5-8-10-12-10-8-1-3-1-3-4--------------------------------------------------| 

Other Bridge? 
e|1-----1-----1----8--------3------------------------------------------------| 
B|--1-----1----------8--------3----------------------------------------------| 
G|----3-----3---10-----10-5-----5--------------------------------------------| 
D|---------------------------------------------------------------------------| 
A|---------------------------------------------------------------------------| 
D|---------------------------------------------------------------------------| 

e|---------------------------------------------------------------------------| 
B|-11-11---------------------------------------------------------------------| 
G|-10-12-0--0--------0--0----------------------------------------------------| 
D|-------10-12-0--0--10-12---------------------------------------------------| 
A|-------------10-12---------------------------------------------------------| 
D|---------------------------------------------------------------------------| 

Chorus 
e|---------------------------------------------------------------------------| 
B|---------------------------------------------------------------------------| 
G|---------------------------------------------------------------------------| 
D|---------------------------------------------------------------------------| 
A|-0-3-4-5-8-10-12-10-8-1-3-1-3-4--------------------------------------------| 
D|-0-3-4-5-8-10-12-10-8-1-3-1-3-4--------------------------------------------| 



************************************ 

| b  Bend 

************************************ 
  

top 5 | archers of loaf
top rock'n roll
Outras músicas do artista letras do(a) Archers of Loaf
Top cifras »Top artistas »
Petaxxon Comunicação Online
Cifras.com.br - Melhor e mais completo site de cifras e tablaturas do Brasil
Mais de 1 milhão de acordes de músicas cadastradas desde 2003
As informações contidas no nosso site são colaborações de seus usuários e podem conter erros, sendo assim, não nos responsabilizamos sobre nenhuma destas.
close
menos
mais
close
Cor dos acordes:

Cor da letra:

 

save
close
close
 
redimensionar