Cifras e Tablaturas
Ary Barroso

Ary Barroso

Aquarela Do Brasil (cavaquinho)

Cifras Cancelar Versão de Impressão
cifras

Ary Barroso - Aquarela Do Brasil (cavaquinho)

fixar na tela  
Exibindo: vídeo-aula ver clipes redimensionar
  
Intro: G G5+ Em  

d|-----------------------------------------------------|  
B|-----------------------------------------------------|  
G|--------------0--------------0---------------0-------|  
D|-0-1-2--0-1-2---0-1-2--0-1-2----0-1-2--0-1-2---0-1-2-|  

Parte A: G6  F7 E7 Am7 D7(9) G Em7   

d|----------------------------------------------------------|  
B|---------------------------------------------------0-1--0-|  
G|----------------------------------------------0-2---------|  
D|-0-2----0-2-4-2-0-2--2--0-2-4-2-0-2--2--0-2-4-------------|  

d|-0---0----------0---0----------0---0----------0---0----------|  
B|---0----0---------0----0---------0----0---------0----0-----0-|  
G|----------2--------------2--------------2--------------2-0---|  
D|------------4-2------------4-2------------4-2----------------|  

d|------------------------|  
B|---------0------------0-|  
G|------------------------|  
D|-4-2---4------4-2---4---|  

Parte B: G G5+ Em Am F D7 Em7   

d|--------0-0-----------------0-0-----------------0-0-------------|  
B|---0--------0-0-----------------0-0-----------------0-0-------0-|  
G|----------------2-2-0-2-------------2-2-0-2-------------2-2-0---|  
D|-0--------------------------------------------------------------|  

d|------------------------------------------|  
B|---------0-----------0--0-0-0-------------|  
G|------------------------------3-3-3-2-2-2-|  
D|-4-2---4-----4-2---4----------------------|  



G7 F#7 F7  

Parte C: E7 F Am D7 Am7(5b) Bm7 G  Em7 D7(9)  

d|-0--0--0-0-----------0--0-0-0-----------0--0-0-0-------------|  
B|-----------2-1-0---0----------2-1-0---0----------2-1-0---0-1-|  
G|-----------------3------------------3------------------3-----|  
D|-------------------------------------------------------------|  

d|-------------------------------0-----------------------------|  
B|-1-1--1-1-0-0----------------0---0-------------------------0-|  
G|--------------2-0---2-2--0-2-------0-0-----2--2-2-2--2-2-0---|  
D|------------------4---------------------2--------------------|  

d|--------------------------------------------------------------|  
B|---------0-----------0----------------------------------------|  
G|-------------------------------------0---------------0--------|  
D|-4-2---4-----4-2---4----0-1-2--0-1-2----0-1-2--0-1-2----0-1-2-|  

d|--------------0-|  
B|--------------0-|  
G|--------------0-|  
D|-0-1-2--0-2-0-3-| 
  

cifra enviadasem correções
enviado porenviada por:iagovillareal
top 5 | ary barroso
top velha guarda
Outras músicas do artista letras do(a) Ary Barroso
Top cifras »Top artistas »
Petaxxon Comunicação Online
Cifras.com.br - Melhor e mais completo site de cifras e tablaturas do Brasil
Mais de 1 milhão de acordes de músicas cadastradas desde 2003
As informações contidas no nosso site são colaborações de seus usuários e podem conter erros, sendo assim, não nos responsabilizamos sobre nenhuma destas.
close
menos
mais
close
Cor dos acordes:

Cor da letra:

 

save
close
close
 
redimensionar