Cifras e Tablaturas
As Friends Rust

As Friends Rust

Half Friend Town

Cifras Cancelar Versão de Impressão
cifras

As Friends Rust - Half Friend Town

fixar na tela  
Exibindo: vídeo-aula ver clipes redimensionar

Tom:

  
Intro 

lead: 
E|---------------------------------| 
B|---------------------------------|  x1 
G|--9--9---9------9------9---------| 
D|--11b12--11b12--11b12--11b12r11--| 
A|---------------------------------| 
E|---------------------------------| 

then: 

rhythm: 
E|--------------------------| 
B|--------------------------|  x2 (second time lead guitar plays octaves) 
G|--4-----------------------| 
D|--4-x8--5-----7-----5-----| 
A|--2-----5-x8--7-x8--5-x8--| 
E|--------3-----5-----3-----| 


Verse 

rhythm: 

E|-----------------------------------------| 
B|-----------------------------------------| 
G|-----4--------7--------------------------|  x2 (lead guitar plays octaves) 
D|-----4---x8---7---x8---7--------5--------| 
A|-----2--------5--------7---x8---5---x8---| 
E|-----------------------5--------3--------| 


Chorus 

both guitars: 

E|-------------------------------------| 
B|-------------------------------------| 
G|--4--------------------------12--11--|  x2 
D|--4--x9----5--------7--------x---x---| 
A|--2--------5---x9---7---x9---10--9---| 
E|-----------3--------5----------------| 


Verse 

rhythm: 

E|-----------------------------------------| 
B|-----------------------------------------| 
G|-----4--------7--------------------------|  x2 (lead guitar plays octaves) 
D|-----4---x8---7---x8---7--------5--------| 
A|-----2--------5--------7---x8---5---x8---| 
E|-----------------------5--------3--------| 


Chorus 

both guitars: 

E|-------------------------------------| 
B|-------------------------------------| 
G|--4--------------------------12--11--|  x2 
D|--4--x9----5--------7--------x---x---| 
A|--2--------5---x9---7---x9---10--9---| 
E|-----------3--------5----------------| 


Verse 

rhythm: 

E|-----------------------------------------| 
B|-----------------------------------------| 
G|-----4--------7--------------------------|  x2 (lead guitar plays octaves) 
D|-----4---x8---7---x8---7--------5--------| 
A|-----2--------5--------7---x8---5---x8---| 
E|-----------------------5--------3--------| 


Outro 

both guitars: 

E|-----------------------------------------------------------|--| 
B|-----------------------------------------------------------|--|  x2 
G|--4--------7-----------------12--11--9-----9--9--11--7-----|--| 
D|--4---x9---7---x9---7--------x---x---x-----x--x--x---x-----|--| 
A|--2--------5--------7---x9---10--9---7-----7--7--9---5-----|--| 
E|--------------------5--------------------------------------|--| 



************************************ 

| x  Dead note 
| r  Release 
| b  Bend 

************************************ 
  

top 5 | as friends rust
top rock'n roll
Outras músicas do artista letras do(a) As Friends Rust
Top cifras »Top artistas »
Petaxxon Comunicação Online
Cifras.com.br - Melhor e mais completo site de cifras e tablaturas do Brasil
Mais de 1 milhão de acordes de músicas cadastradas desde 2003
As informações contidas no nosso site são colaborações de seus usuários e podem conter erros, sendo assim, não nos responsabilizamos sobre nenhuma destas.
close
menos
mais
close
Cor dos acordes:

Cor da letra:

 

save
close
close
 
redimensionar