Cifras e Tablaturas
As I Lay Dying

As I Lay Dying

Coffee Mug

Cifras Cancelar Versão de Impressão
cifras

As I Lay Dying - Coffee Mug

fixar na tela  
Exibindo: vídeo-aula ver clipes redimensionar
  
D#|----|----------------------------|----------------------------| 
A#|----|----------------------------|----------------------------| 
F#|----|--9--9--9--9--9--9--9--9----|--9--9--9--9--9--9--9--9----| 
C#|----|--9--9--9--9--9--9--9--9----|--9--9--9--9--9--9--9--9----| 
G#|----|--7--7--7--7--7--7--7--7----|--7--7--7--7--7--7--7--7----| 
D#|----|----------------------------|----------------------------| 


D#|----------------------------|----------------------------| 
A#|----------------------------|----------------------------| 
F#|----------------------------|----------------------------| 
C#|--2--2--2--2--5--5--7--7----|--2--2--2--2--5--5--7--7----| 
G#|--2--2--2--2--5--5--7--7----|--2--2--2--2--5--5--7--7----| 
D#|--0--0--0--0--3--3--5--5----|--0--0--0--0--3--3--5--5----| 


D#|----------------------------|----------------------------| 
A#|----------------------------|----------------------------| 
F#|----------------------------|--3--3--3--3----------------| 
C#|--2--2--2--2--5--5--7--7----|--3--3--3--3--7--7--5--5----| 
G#|--2--2--2--2--5--5--7--7----|--1--1--1--1--7--7--5--5----| 
D#|--0--0--0--0--3--3--5--5----|--1--1--1--1--5--5--3--3----| 


D#|----------------------------|----------------------------| 
A#|----------------------------|----------------------------| 
F#|----------------------------|----------------------------| 
C#|--2--2--2--2--5--5--7--7----|--2--2--2--2--5--5--7--7----| 
G#|--2--2--2--2--5--5--7--7----|--2--2--2--2--5--5--7--7----| 
D#|--0--0--0--0--3--3--5--5----|--0--0--0--0--3--3--5--5----| 


D#|----------------------------|----------------------------| 
A#|----------------------------|----------------------------| 
F#|----------------------------|--3--3--3--3----------------| 
C#|--2--2--2--2--5--5--7--7----|--3--3--3--3--7--7--5--5----| 
G#|--2--2--2--2--5--5--7--7----|--1--1--1--1--7--7--5--5----| 
D#|--0--0--0--0--3--3--5--5----|--1--1--1--1--5--5--3--3----| 


D#|----------------------------|----------------------------| 
A#|----------------------------|----------------------------| 
F#|--7--7--7--7----------------|--7--7--7--7----------------| 
C#|--7--7--7--7--5--5--7--7----|--7--7--7--7--5--5--7--7----| 
G#|--5--5--5--5--5--5--7--7----|--5--5--5--5--5--5--7--7----| 
D#|--------------3--3--5--5----|--------------3--3--5--5----| 


D#|----------------------------|----------------------------| 
A#|----------------------------|----------------------------| 
F#|--7--7--7--7----------------|--7--7--7--7----------------| 
C#|--7--7--7--7--5--5--7--7----|--7--7--7--7--5--5--7--7----| 
G#|--5--5--5--5--5--5--7--7----|--5--5--5--5--5--5--7--7----| 
D#|--------------3--3--5--5----|--------------3--3--5--5----| 


D#|----------------------------|----------------------------| 
A#|----------------------------|----------------------------| 
F#|----------------------------|----------------------------| 
C#|--2--2--2--2--5--5--7--7----|--2--2--2--2--5--5--7--7----| 
G#|--2--2--2--2--5--5--7--7----|--2--2--2--2--5--5--7--7----| 
D#|--0--0--0--0--3--3--5--5----|--0--0--0--0--3--3--5--5----| 


D#|----------------------------|----------------------------| 
A#|----------------------------|----------------------------| 
F#|----------------------------|--3--3--3--3----------------| 
C#|--2--2--2--2--5--5--7--7----|--3--3--3--3--7--7--5--5----| 
G#|--2--2--2--2--5--5--7--7----|--1--1--1--1--7--7--5--5----| 
D#|--0--0--0--0--3--3--5--5----|--1--1--1--1--5--5--3--3----| 


D#|----------------------------|----------------------------| 
A#|----------------------------|----------------------------| 
F#|----------------------------|----------------------------| 
C#|--2--2--2--2--5--5--7--7----|--2--2--2--2--5--5--7--7----| 
G#|--2--2--2--2--5--5--7--7----|--2--2--2--2--5--5--7--7----| 
D#|--0--0--0--0--3--3--5--5----|--0--0--0--0--3--3--5--5----| 


D#|----------------------------|----------------------------| 
A#|----------------------------|----------------------------| 
F#|----------------------------|--3--3--3--3----------------| 
C#|--2--2--2--2--5--5--7--7----|--3--3--3--3--7--7--5--5----| 
G#|--2--2--2--2--5--5--7--7----|--1--1--1--1--7--7--5--5----| 
D#|--0--0--0--0--3--3--5--5----|--1--1--1--1--5--5--3--3----| 


D#|----------------------------|----------------------------| 
A#|----------------------------|----------------------------| 
F#|--7--7--7--7----------------|--7--7--7--7----------------| 
C#|--7--7--7--7--5--5--7--7----|--7--7--7--7--5--5--7--7----| 
G#|--5--5--5--5--5--5--7--7----|--5--5--5--5--5--5--7--7----| 
D#|--------------3--3--5--5----|--------------3--3--5--5----| 


D#|----------------------------|----------------------------| 
A#|----------------------------|----------------------------| 
F#|--7--7--7--7----------------|--7--7--7--7----------------| 
C#|--7--7--7--7--5--5--7--7----|--7--7--7--7--5--5--7--7----| 
G#|--5--5--5--5--5--5--7--7----|--5--5--5--5--5--5--7--7----| 
D#|--------------3--3--5--5----|--------------3--3--5--5----| 


D#|----------------------------|----------------------------|----------------|| 
A#|----------------------------|----------------------------|----------------|| 
F#|--9--9--9--9--9--9--9--9----|--9--9--9--9--9--9--9--9----|--9\------------|| 
C#|--9--9--9--9--9--9--9--9----|--9--9--9--9--9--9--9--9----|--9\------------|| 
G#|--7--7--7--7--7--7--7--7----|--7--7--7--7--7--7--7--7----|--7\------------|| 
D#|----------------------------|----------------------------|----------------|| 


****************************************** 

|\ - slide 

****************************************** 
  

top 5 | as i lay dying
top rock'n roll
Outras músicas do artista letras do(a) As I Lay Dying
Top cifras »Top artistas »
Petaxxon Comunicação Online
Cifras.com.br - Melhor e mais completo site de cifras e tablaturas do Brasil
Mais de 1 milhão de acordes de músicas cadastradas desde 2003
As informações contidas no nosso site são colaborações de seus usuários e podem conter erros, sendo assim, não nos responsabilizamos sobre nenhuma destas.
close
menos
mais
close
Cor dos acordes:

Cor da letra:

 

save
close
close
 
redimensionar