Cifras e Tablaturas
Ashley Tisdale

Ashley Tisdale

Still Into You

Cifras Cancelar Versão de Impressão
cifras

Ashley Tisdale - Still Into You

fixar na tela  
Exibindo: vídeo-aula ver clipes redimensionar

Tom:

  Intro 

e|-----------------|-----------------|-----------------|-----------------| 
B|-------7---------|-------7---------|-------7---------|-------7---------| 
G|-----------8---8-|---8-------8---8-|---8-------8---8-|---8-------8---8-| 
D|---9---------9---|-------------9---|-------------9---|-------------9---| 
A|-----9-----------|-----9-----------|-----9-----------|-----9-----------| 
E|-7---------------|-7---------------|-7---------------|-7---------------| 

Verse 

e|-----------------|-----------------|-----------------|-----------------| 
B|-------7---------|-------7---------|-------7---------|-------7---------| 
G|---8-------8---8-|---8-------8---8-|---8-------8---8-|---8-------8-----| 
D|-------------9---|-----9-------9---|-------------9---|-----9-------9---| 
A|-----9-----------|-9---------------|-----9-----------|-9---------------| 
E|-7---------------|-----------------|-7---------------|-----------------| 
  Count the years on one hand we've been together       I need the other one to 

e|-----------------|-----------------|-----------------|-----------------| 
B|-------4---------|-------4---------|-------4---------|-------4---------| 
G|---4-------4---4-|---4-------4---4-|---4-------4---4-|---4-------4-----| 
D|-------------6---|-----6-------6---|-------------6---|-----6-------6---| 
A|-----6-----------|-6---------------|-----6-----------|-6---------------| 
E|-4---------------|-----------------|-4---------------|-----------------| 
  hold you make you feel, make you feel better 

e|-----------------|-----------------|-----------------|-----------------| 
B|-------7---------|-------7---------|-------7---------|-------7---------| 
G|---8-------8---8-|---8-------8---8-|---8-------8---8-|---8-------8-----| 
D|-------------9---|-----9-------9---|-------------9---|-----9-------9---| 
A|-----9-----------|-9---------------|-----9-----------|-9---------------| 
E|-7---------------|-----------------|-7---------------|-----------------| 
  It's not a walk in the park to love each other        But when our fingers inter- 

e|-----------------|-----------------|-----------------|-----------------| 
B|-------4---------|-------4---------|-------4---------|-------4---------| 
G|---4-------4---4-|---4-------4---4-|---4-------4---4-|---4-------4-----| 
D|-------------6---|-----6-------6---|-------------6---|-----6-------6---| 
A|-----6-----------|-6---------------|-----6-----------|-6---------------| 
E|-4---------------|-----------------|-4---------------|-----------------| 
  lock can't deny, can't deny you're worth it           Cause after all this 

e|-----------------|-----------------|-----------------|-----------------| 
B|-------0---------|-------2---------|-------4---------|-4---------------| 
G|-----------1-----|-----------3-----|---4-------4-----|-----------------| 
D|---2---------2---|---4---------4---|-----4-------4---|-----------------| 
A|-----2-----------|-----4-----------|-2---------------|-2---------------| 
E|-0---------------|-2---------------|-----------------|-----------------| 
  time, I'm         still into        you               I should be over all the 

Chorus 

e|-----------------|-----------------|-----------------|-----------------| 
B|-------9---------|------11---------|-------4---------|-------4---------| 
G|---9-------9-----|--11-------11----|---4-------4---4-|---4-------4-----| 
D|-----9-------9---|----11-------11--|-----4-------4---|-----4-------4---| 
A|-7---------------|-9---------------|-2---------------|-2---------------| 
E|-----------------|-----------------|-----------------|-----------------| 
  butterflies       But I'm into you                    And baby even on our 

e|-----------------|-----------------|-----------------|-----------------| 
B|-------9---------|------11---------|-------4---------|-------4---------| 
G|---9-------9-----|--11-------11----|---4-------4---4-|---4-------4-----| 
D|-----9-------9---|----11-------11--|-----4-------4---|-----4-------4---| 
A|-7---------------|-9---------------|-2---------------|-2---------------| 
E|-----------------|-----------------|-----------------|-----------------| 
  worst nights      I'm into you                        Let 'em wonder how we 

e|-----------------|-----------------|-----------------|-----------------| 
B|-------0---------|-------2---------|-------4---------|-------7---------| 
G|-----------1-----|-----------3-----|-----------4-----|-----------8-----| 
D|---2---------2---|---4---------4---|---6---------6---|---9---------9---| 
A|-----2-----------|-----4-----------|-----6-----------|-----9-----------| 
E|-0---------------|-2---------------|-4---------------|-7---------------| 
  got this far      Cause I don't really need to wonder at all yeah after all this 

e|-----------------|-----------------|-----------------|-----------------| 
B|-------9---------|------11---------|-------7---------|-------7---------| 
G|---9-------9-----|--11-------11----|-----------8---8-|---8-------8---8-| 
D|-----9-------9---|----11-------11--|---9---------9---|-------------9---| 
A|-7---------------|-9---------------|-----9-----------|-----9-----------| 
E|-----------------|-----------------|-7---------------|-7---------------| 
  time I'm still into you 

e|-----------------|-----------------| 
B|-------7---------|-------7---------| 
G|---8-------8---8-|---8-------8---8-| 
D|-------------9---|-------------9---| 
A|-----9-----------|-----9-----------| 
E|-7---------------|-7---------------| 

Verse 

e|-----------------|-----------------|-----------------|-----------------| 
B|-------7---------|-------7---------|-------7---------|-------7---------| 
G|---8-------8---8-|---8-------8---8-|---8-------8---8-|---8-------8-----| 
D|-------------9---|-----9-------9---|-------------9---|-----9-------9---| 
A|-----9-----------|-9---------------|-----9-----------|-9---------------| 
E|-7---------------|-----------------|-7---------------|-----------------| 
  Recount the night that I first met your mother        And on the drive back to my 

e|-----------------|-----------------|-----------------|-----------------| 
B|-------4---------|-------4---------|-------4---------|-------4---------| 
G|---4-------4---4-|---4-------4---4-|---4-------4---4-|---4-------4-----| 
D|-------------6---|-----6-------6---|-------------6---|-----6-------6---| 
A|-----6-----------|-6---------------|-----6-----------|-6---------------| 
E|-4---------------|-----------------|-4---------------|-----------------| 
  house I told you that, told you that I loved ya 
e|-----------------|-----------------|-----------------|-----------------| 
B|-------7---------|-------7---------|-------7---------|-------7---------| 
G|---8-------8---8-|---8-------8---8-|---8-------8---8-|---8-------8-----| 
D|-------------9---|-----9-------9---|-------------9---|-----9-------9---| 
A|-----9-----------|-9---------------|-----9-----------|-9---------------| 
E|-7---------------|-----------------|-7---------------|-----------------| 
  You felt the weight of the world fall off your shoulders and to your favorite 

e|-----------------|-----------------|-----------------|-----------------| 
B|-------4---------|-------4---------|-------4---------|-------4---------| 
G|---4-------4---4-|---4-------4---4-|---4-------4---4-|---4-------4-----| 
D|-------------6---|-----6-------6---|-------------6---|-----6-------6---| 
A|-----6-----------|-6---------------|-----6-----------|-6---------------| 
E|-4---------------|-----------------|-4---------------|-----------------| 
  song we sang along to the start of forever            and after all this 

e|-----------------|-----------------|-----------------|-----------------| 
B|-------0---------|-------2---------|-------4---------|-4---------------| 
G|-----------1-----|-----------3-----|---4-------4-----|-----------------| 
D|---2---------2---|---4---------4---|-----4-------4---|-----------------| 
A|-----2-----------|-----4-----------|-2---------------|-2---------------| 
E|-0---------------|-2---------------|-----------------|-----------------| 
  time, I'm         still into        you               I should be over all the 

Chorus 

e|-----------------|-----------------|-----------------|-----------------| 
B|-------0---------|-------2---------|-------4---------|-------4---------| 
G|-----------1-----|-----------3-----|---4-------4---4-|---4-------4-----| 
D|---2---------2---|---4---------4---|-----4-------4---|-----4-------4---| 
A|-----2-----------|-----4-----------|-2---------------|-2---------------| 
E|-0---------------|-2---------------|-----------------|-----------------| 
  butterflies       But I'm into you                    And baby even on our 

e|-----------------|-----------------|-----------------|-----------------| 
B|-------0---------|-------2---------|-------4---------|-------4---------| 
G|-----------1-----|-----------3-----|---4-------4---4-|---4-------4-----| 
D|---2---------2---|---4---------4---|-----4-------4---|-----4-------4---| 
A|-----2-----------|-----4-----------|-2---------------|-2---------------| 
E|-0---------------|-2---------------|-----------------|-----------------| 
  worst nights      I'm into you                        Let 'em wonder how we 

e|-----------------|-----------------|-----------------|-----------------| 
B|-------0---------|-------2---------|-------4---------|-------7---------| 
G|-----------1-----|-----------3-----|-----------4-----|-----------8-----| 
D|---2---------2---|---4---------4---|---6---------6---|---9---------9---| 
A|-----2-----------|-----4-----------|-----6-----------|-----9-----------| 
E|-0---------------|-2---------------|-4---------------|-7---------------| 
  got this far      Cause I don't really need to wonder at all yeah after all this 

e|-----------------|-----------------| 
B|-------9---------|------11---------| 
G|---9-------9-----|--11-------11----| 
D|-----9-------9---|----11-------11--| 
A|-7---------------|-9---------------| 
E|-----------------|-----------------| 
  time I'm still into you 

Bridge 

e|-----------------|-----------------|-----------------|-----------------| 
B|-------0---------|-----------------|-------0---------|-------2---------| 
G|---4-----3-----3h|-4-----4p3-----0-|-----------1-----|-----------3-----| 
D|-----4-----4-----|---4-------4-----|---2---------2---|---4---------4---| 
A|-2-----------2---|-----2-------2---|-----2-----------|-----4-----------| 
E|-----------------|-----------------|-0---------------|-2---------------| 

e|-----------------|-----------------|-----------------|-----------------| 
B|-------0---------|-----------------|-------0---------|-------2---------| 
G|---4-----3-----3h|-4-----4p3-----0-|-----------1-----|-----------3-----| 
D|-----4-----4-----|---4-------4-----|---2---------2---|---4---------4---| 
A|-2-----------2---|-----2-------2---|-----2-----------|-----4-----------| 
E|-----------------|-----------------|-0---------------|-2---------------| 
  Ooh 

e|-----------------|-----------------|-----------------|-----------------| 
B|-------0---------|-----------------|-------0---------|-------2---------| 
G|---4-----3-----3h|-4-----4p3-----0-|-----------1-----|-----------3-----| 
D|-----4-----4-----|---4-------4-----|---2---------2---|---4---------4---| 
A|-2-----------2---|-----2-------2---|-----2-----------|-----4-----------| 
E|-----------------|-----------------|-0---------------|-2---------------| 
  Some things just make sense and     one of those is   you and I 

e|-----------------|-----------------|-----------------|-----------------| 
B|-------0---------|-----------------|-------0---------|-------2---------| 
G|---4-----3-----3h|-4-----4p3-----0-|-----------1-----|-----------3-----| 
D|-----4-----4-----|---4-------4-----|---2---------2---|---4---------4---| 
A|-2-----------2---|-----2-------2---|-----2-----------|-----4-----------| 
E|-----------------|-----------------|-0---------------|-2---------------| 
  Some things just make sense and     even after        all this time 

e|-0---------------|-2---------------|-2---------------|-----------------| 
B|-----------------|-----------------|-----------------|-----------------| 
G|-1---------------|-3---------------|-4---------------|-----------------| 
D|-----------------|-----------------|-----------------|-----------------| 
A|-----------------|-----------------|-----------------|-----------------| 
E|-----------------|-----------------|-----------------|-----------------| 
                       I'm into       you,                 baby not a 

e|-7---------------|-9---------------|-7---------------|-----------------| 
B|-----------------|-----------------|-----------------|-----------------| 
G|-9---------------|-11--------------|-8---------------|-----------------| 
D|-----------------|-----------------|-----------------|-----------------| 
A|-----------------|-----------------|-----------------|-----------------| 
E|-----------------|-----------------|-----------------|-----------------| 
  day goes by that I'm not into       you               I should be over all the 

Chorus 

e|-----------------|-----------------|-----------------|-----------------| 
B|-------0---------|-------2---------|-------4---------|-------4---------| 
G|-----------1-----|-----------3-----|---4-------4---4-|---4-------4-----| 
D|---2---------2---|---4---------4---|-----4-------4---|-----4-------4---| 
A|-----2-----------|-----4-----------|-2---------------|-2---------------| 
E|-0---------------|-2---------------|-----------------|-----------------| 
  butterflies       But I'm into you                    And baby even on our 

e|-----------------|-----------------|-----------------|-----------------| 
B|-------0---------|-------2---------|-------4---------|-------4---------| 
G|-----------1-----|-----------3-----|---4-------4---4-|---4-------4-----| 
D|---2---------2---|---4---------4---|-----4-------4---|-----4-------4---| 
A|-----2-----------|-----4-----------|-2---------------|-2---------------| 
E|-0---------------|-2---------------|-----------------|-----------------| 
  worst nights      I'm into you                        Let 'em wonder how we 

e|-----------------|-----------------|-----------------|-----------------| 
B|-------0---------|-------2---------|-------4---------|-------5---------| 
G|-----------1-----|-----------3-----|-----------4-----|-----------6-----| 
D|---2---------2---|---4---------4---|---6---------6---|---7---------7---| 
A|-----2-----------|-----4-----------|-----6-----------|-----7-----------| 
E|-0---------------|-2---------------|-4---------------|-5---------------| 
  got this far      Cause I don't really need to wonder at all yeah after all this 

e|-----------------|-----------------| 
B|-------9---------|------11---------| 
G|---9-------9-----|--11-------11----| 
D|-----9-------9---|----11-------11--| 
A|-7---------------|-9---------------| 
E|-----------------|-----------------| 
  time I'm still into you 

Outro 

e|-----------------|-----------------|-----------------|-----------------| 
B|-------9---------|------11---------|-------9---------|------11---------| 
G|---9-------9-----|--11-------11----|---9-------9-----|--11-------11----| 
D|-----9-------9---|----11-------11--|-----9-------9---|----11-------11--| 
A|-7---------------|-9---------------|-7---------------|-9---------------| 
E|-----------------|-----------------|-----------------|-----------------| 
         I'm still into you                  I'm still into you 

e|-----------------|-7---------------| 
B|-------7---------|-----------------| 
G|---8-------8-----|-----------------| 
D|-------------9---|-----------------| 
A|-----9-----------|-----------------| 
E|-7---------------|-7---------------| 

************************************ 

| h   Hammer-on 
| p   Pull-off 

************************************ 
  

top 5 | ashley tisdale
top pop music
Outras músicas do artista letras do(a) Ashley Tisdale
Top cifras »Top artistas »
Petaxxon Comunicação Online
Cifras.com.br - Melhor e mais completo site de cifras e tablaturas do Brasil
Mais de 1 milhão de acordes de músicas cadastradas desde 2003
As informações contidas no nosso site são colaborações de seus usuários e podem conter erros, sendo assim, não nos responsabilizamos sobre nenhuma destas.
close
menos
mais
close
Cor dos acordes:

Cor da letra:

 

save
close
close
 
redimensionar