Cifras e Tablaturas
Atari Teenage Riot

Atari Teenage Riot

Revolution Action

Cifras Cancelar Versão de Impressão
cifras

Atari Teenage Riot - Revolution Action

fixar na tela  
Exibindo: vídeo-aula ver clipes redimensionar

Tom:

  
Intro 
e|---------------------| 
B|---------------------| 
G|----7-7--------------| 
D|7-7-7-7-9-9-9\8-8-8-8| X20 
A|7-7-5-5-9-9-9\8-8-8-8| 
E|5-5-----7-7-7\6-6-6-6| 

Verse 
e|---------------------| 
B|---------------------| 
G|----3-3-3------------| 
D|3-3-3-3-3-5-5-5\4-4-4| X12 
A|3-3-1-1-1-5-5-5\4-4-4| 
E|1-1-------3-3-3\2-2-2| 

Chorus 
e|---------------------| 
B|---------------------| 
G|----7-7--------------| 
D|7-7-7-7-9-9-9\8-8-8-8| X8 
A|7-7-5-5-9-9-9\8-8-8-8| 
E|5-5-----7-7-7\6-6-6-6| 

Bridge 
e|---------------------| 
B|---------------------| 
G|----5-5--------------| 
D|5-5-5-5-7-7-7\6-6-6-6| X16 
A|5-5-3-3-7-7-7\6-6-6-6| 
E|3-3-----5-5-5\4-4-4-4| 

Verse 
e|---------------------| 
B|---------------------| 
G|----3-3-3------------| 
D|3-3-3-3-3-5-5-5\4-4-4| X12 
A|3-3-1-1-1-5-5-5\4-4-4| 
E|1-1-------3-3-3\2-2-2| 

Chorus 
e|---------------------| 
B|---------------------| 
G|----7-7--------------| 
D|7-7-7-7-9-9-9\8-8-8-8| X8 
A|7-7-5-5-9-9-9\8-8-8-8| 
E|5-5-----7-7-7\6-6-6-6| 

************************************ 

| \   Slide down 

************************************ 
  

top 5 | atari teenage riot
top rock'n roll
Outras músicas do artista letras do(a) Atari Teenage Riot
Top cifras »Top artistas »
Petaxxon Comunicação Online
Cifras.com.br - Melhor e mais completo site de cifras e tablaturas do Brasil
Mais de 1 milhão de acordes de músicas cadastradas desde 2003
As informações contidas no nosso site são colaborações de seus usuários e podem conter erros, sendo assim, não nos responsabilizamos sobre nenhuma destas.
close
menos
mais
close
Cor dos acordes:

Cor da letra:

 

save
close
close
 
redimensionar