Cifras e Tablaturas
Atreyu

Atreyu

Do You Know Who You Are

Cifras Cancelar Versão de Impressão
cifras

Atreyu - Do You Know Who You Are

fixar na tela  
Exibindo: vídeo-aula ver clipes redimensionar
  
D|---------------------------------------------| 
A|---------------------------------------------| 
F|---------------------------------------------| 
C|------------3---3-10-12---12-10-8---8-10-5---| 
G|-0-0--------3---3-10-12---12-10-8---8-10-5---| 
C|-0-0--------3---3-10-12---12-10-8---8-10-5---| 
   - - 

D|-------------------------------------------------------------------------------------| 
A|-------------------------------------------------------------------------------------| 
F|-------------------------------------------------------------------------------------| 
C|-7-7-7-7-----------------------------------------------------------------------------| 
G|-5-5-5-5-0-0-0-0-0-0-0-0-0-0-0-0-0-0-0-0-0-0-0-0-0-0-0-0-0-0-0-0-0-0-0-0-0-0-0-0-0-0-| 
C|---------0-0-0-0-0-0-0-0-0-0-0-0-0-0-0-0-0-0-0-0-0-0-0-0-0-0-0-0-0-0-0-0-0-0-0-0-0-0-| 
           - - - - - - - - - - - - - - - - - - - - - - - - - - - - - - - - - - - - - - 

D|---------------------------------------------------------------------------| 
A|---------------------------------------------------------------------------| 
F|---------------------------------------------------------------------------| 
C|-3---3-10-12---12-10-8---8-10-5---5-3-0---3-10-12---12-10-8---8-10-5---5-3-| 
G|-3---3-10-12---12-10-8---8-10-5---5-3-0---3-10-12---12-10-8---8-10-5---5-3-| 
C|-3---3-10-12---12-10-8---8-10-5---5-3-0---3-10-12---12-10-8---8-10-5---5-3-| 

D|-----------------------------------------------------------------------------------------------| 
A|-----------------------------------------------------------------------------------------------| 
F|-------11-----------------10------------14-----------------10----13/14-14-12h14p12-10----10/14-| 
C|-12-12-12-12~-12-12-10h12----12/--12-12-12-12~-12-12-10h12----12----------------------12-------| 
G|-----------------------------------------------------------------------------------------------| 
C|-----------------------------------------------------------------------------------------------| 
   -  -         -  -                -  -         -  - 

D|-------------------------------------------| 
A|-----------------------------12h14h15~-15/-| 
F|-14-14-14--12h14p12-10---------------------| 
C|-18-18-18b-------------12~-12--------------| 
G|-------------------------------------------| 
C|-------------------------------------------| 

D|-------------------------18b-17~-17-18-17-15-17------------------------| 
A|-/15~--17~-18~--16h18p16------------------------20p18p17p15-18~-18-20b-| 
F|-----------------------------------------------------------------------| 
C|-----------------------------------------------------------------------| 
G|-----------------------------------------------------------------------| 
C|-----------------------------------------------------------------------| 

D|----------------------------------------------17-18-20-18-20-20b--| 
A|-13-15-17-15-17-18-17-18-20-18-20-22-20-22-23---------------------| 
F|------------------------------------------------------------------| 
C|------------------------------------------------------------------| 
G|------------------------------------------------------------------| 
C|------------------------------------------------------------------| 

D|---------------------------------------------------------------| 
A|---------------------------------------------------------------| 
F|-/15-15-15-15/14-14-14-14/12-12-12-12/10-10-10-10/9-9-9-9/7/9~-| 
F|---------------------------------------------------------------| 
G|---------------------------------------------------------------| 
C|---------------------------------------------------------------| 

D|----------------------------------------------------------------------------------| 
A|----------------------------------------------------------------------------------| 
F|-14-14-14-14/12-12-12-12/10-10-10-10/9-9-9-9/7-7-7-9-7~-7h9p7-5~--/7~--/9~--/10~--| 
C|----------------------------------------------------------------------------------| 
G|----------------------------------------------------------------------------------| 
C|----------------------------------------------------------------------------------| 

D|----------------------------------------------------------------15h17p15h17p15-| 
A|-------------------------------------------13h15p13h15p13h15p13----------------| 
F|-12h14p12h14p12h14p12-14h15p14h15p14h15p14-------------------------------------| 
C|-------------------------------------------------------------------------------| 
G|-------------------------------------------------------------------------------| 
C|-------------------------------------------------------------------------------| 

D|---------------------------------------12-12-13-13-13p12h13-| 
A|------------------------------------12----------------------| 
F|-9-9-9-10-10-10-9-9h10h12-9-9-14-14-------------------------| 
C|------------------------------------------------------------| 
G|------------------------------------------------------------| 
C|------------------------------------------------------------| 
   - - - - - - -            - - -  - 

D|-15-17-17-17-18-18-17-17-20-20-17-17-20-20b~-22p20p18-20p18p17-18p17p15-12h13h15-13~-| 
A|-------------------------------------------------------------------------------------| 
F|-------------------------------------------------------------------------------------| 
C|-------------------------------------------------------------------------------------| 
G|-------------------------------------------------------------------------------------| 
C|-------------------------------------------------------------------------------------| 

D|-----------------------------------------------------------------------------| 
A|-----------------------------------------------------------------------------| 
F|-----------------------------------------------------------------------------| 
C|-3---3-10-12---12-10-8---8-10-5---5-3-0---3-10-12---12-10-8---8-10-5---5-3-0-| 
G|-3---3-10-12---12-10-8---8-10-5---5-3-0---3-10-12---12-10-8---8-10-5---5-3-0-| 
C|-3---3-10-12---12-10-8---8-10-5---5-3-0---3-10-12---12-10-8---8-10-5---5-3-0-| 


************************************ 

| h  Hammer-on 
| p  Pull-off 
| /  Slide up 
| ~  Vibrato 
| b  Bend 

************************************ 
  

top 5 | atreyu
top rock'n roll
Outras músicas do artista letras do(a) Atreyu
Top cifras »Top artistas »
Petaxxon Comunicação Online
Cifras.com.br - Melhor e mais completo site de cifras e tablaturas do Brasil
Mais de 1 milhão de acordes de músicas cadastradas desde 2003
As informações contidas no nosso site são colaborações de seus usuários e podem conter erros, sendo assim, não nos responsabilizamos sobre nenhuma destas.
close
menos
mais
close
Cor dos acordes:

Cor da letra:

 

save
close
close
 
redimensionar