Cifras e Tablaturas
August Burns Red

August Burns Red

The Frost

Cifras Cancelar Versão de Impressão
cifras

August Burns Red - The Frost

fixar na tela  
Exibindo: vídeo-aula ver clipes redimensionar
  
Tuning: B Gb B E Ab Db 

Playthrough: https://www.youtube.com/watch?v=a2rRou_jUrQ

Riff 1a - 00:04 - 00:36 - x2 
- ------------------------------------------------------------------- 
- -------------------------------------------------------------8----- 
- -11------------------------------7---------------------------7----- 
- -x-------------------------------x---------------7-----8-----x----- 
- -9-------------------------------5---------------x-----x-----x----- 
- -0(x32)--------------------------0(x16)----------5(x6)-5(x6)-5(x4)- 

- ------------------------------------------------------------------- 
- ------------------------------------------------------------------- 
- -11--------------12----14------------------------------11---------- quick bends on note 5/16 and 13/16 
- -x---------------x-----x---------11--------------12----12----------  
- -9---------------10----12--------x---------------x-----x----------- 
- -0(x16)----------0(x6)-0(x10)----9(x16)----------9(x6)-9(x10)------ 

Riff 1b - 00:20 - 00:36 
- ------------------------------------------------------------------------------------------------- 
- ------------------------------------------------------------------------------------------------- 
- ----------------------11----------------------------------------------11------------------------- 
- -12-12-10-10-12-12-10----12-12-10-10-12-12-10-10-12-12-10-10-12-12-10----12-12-10-10-12-12-10-10- 
- ------------------------------------------------------------------------------------------------- 
- ------------------------------------------------------------------------------------------------- 
PM ............................................................................................... 

- ------------------------------------------------------------------------------------------------- 
- ------------------------------------------------------------------------------------------------- 
- ----------------------12----------------------------------------------15-------14----12----11---- 
- -12-12-10-10-12-12-10----12-12-10-10-12-12-10-10-12-12-10-10-12-12-10----10-10----10----12----10- 
- ------------------------------------------------------------------------------------------------- 
- ------------------------------------------------------------------------------------------------- 
PM ............................................................................................... 

- ------------------------------------------------------------------------------------------------- 
- ------------------------------------------------------------------------------------------------- 
- ----------------------11----------------------------------------------14------------------------- 
- -12-12-10-10-12-12-10----12-12-10-10-12-12-10-10-12-12-10-10-12-12-10----12-12-10-10-12-12-10-10- 
- ------------------------------------------------------------------------------------------------- 
- ------------------------------------------------------------------------------------------------- 
PM ............................................................................................... 

- -------------------------------------------------------------------------------------------14-14- 
- -------------------------------------------------------------------------14-14-14-14-15-15------- 
- ----------------------16----------------------------------------------16------------------------- 
- -12-12-11-11-12-12-11----12-12-11-11-12-12-11-11-12-12-11-11-12-12-11---------------------------- 
- ------------------------------------------------------------------------------------------------- 
- ------------------------------------------------------------------------------------------------- 
PM ............................................................................................... 

Riff 2a - 00:36 - 00:52 
- ------------------------------------------------------------------- 
- ------------------------------------------------------------------- 
- -11------------------------------7---------------------------7----- 
- -x-------------------------------x---------------7-----8-----8----- 
- -9-------------------------------5---------------x-----x-----x----- 
- -0(x32)--------------------------8(x16)----------5(x6)-5(x6)-5(x4)- 

- ------------------------------------------------------------------- 
- ------------------------------------------------------------------- 
- -11--------------12----14------------------------------11---------- quick bends on note 5/16 and 13/16 
- -x---------------x-----x---------11--------------12----12----------  
- -9---------------10----12--------x---------------x-----x----------- 
- -0(x16)----------0(x6)-0(x10)----9(x16)----------9(x6)-9(x10)------ 

Riff 2b - 00:36 - 00:56 
   T           T              T        T           T           T              T        T 
- ----------------------------15p10h14-15/17p14p10----------------------------15p10h14-15/17p14p10- 
- -15p10h13p10-15/17p10h13p10----------------------15p10h13p10-15/17p10h13p10---------------------- 
- ------------------------------------------------------------------------------------------------- 
- ------------------------------------------------------------------------------------------------- 
- ------------------------------------------------------------------------------------------------- 
- ------------------------------------------------------------------------------------------------- 

   T        T     T     T                    T     T     T     T        T     T     T        T 
- -18p15p10-17p10-14p10----------------------------18p10-17p10-15p14p10-15p10-14p10---------------- 
- ----------------------15/17p11p10h11h13p10-15/17----------------------------------15/17p10-15p11- 
- ------------------------------------------------------------------------------------------------- 
- ------------------------------------------------------------------------------------------------- 
- ------------------------------------------------------------------------------------------------- 
- ------------------------------------------------------------------------------------------------- 

   T           T              T        T           T           T              T        T 
- ----------------------------15p10h14-15/17p14p10----------------------------15p10h14-15/17p14p10- 
- -15p10h13p10-15/17p10h13p10----------------------15p10h13p10-15/17p10h13p10---------------------- 
- ------------------------------------------------------------------------------------------------- 
- ------------------------------------------------------------------------------------------------- 
- ------------------------------------------------------------------------------------------------- 
- ------------------------------------------------------------------------------------------------- 

   T        T     T     T                    T     T     T     T        T     T     T 
- -17p15p10-17p10-14p10----------------------------19p10-17p10-15p14p10-15p10-14p10---------------- 
- ----------------------15/17p14p10h14h15p10-15/17----------------------------------15/17p10h14p10- 
- ------------------------------------------------------------------------------------------------- 
- ------------------------------------------------------------------------------------------------- 
- ------------------------------------------------------------------------------------------------- 
- ------------------------------------------------------------------------------------------------- 

- ------------------------------------------------------------------------------------------------- 
- -15~--------------------------------------------------------------------------------------------- 
- ------------------------------------------------------------------------------------------------- 
- -------------------------------------------------\\\--------------------------------------------- 
- -------------------------------------------------\\\--------------------------------------------- 
- -------------------------------------------------\\\--------------------------------------------- 


Riff 3, Guitar 1 & 2 - 00:52 - 00:56 
- ------------------------------------------------------------------------- 
- ------------------------------------------------------------------------- 
- ------------------------------------------------------------------------- 
- -0----------------------------------------------------------------------- 
- -0-----------------------------------------------0-----0-----0-----0----- 
- -0-----------------------------------------------0-----0-----0-----0----- 
PM                                                 ....................... 
- ------------------------------------------------------------------------- 
- ------------------------------------------------------------------------- 
- -------------------------14-------14-------14----12----12----15----14---- 
- -0--------------------------12-12----12-12----12----12----12----12----12- 
- -0----------------------------------------------------------------------- 
- -0----------------------------------------------------------------------- 
PM                            .....    .....    ..    ..    ..    ..    .. 


Riff 4, Guitar 1 & 2 - 00:56 - 01:12 
- ----------------------------------------------------------------------------- 
- ----------------------------------------------------------------------------- 
- ----------------------------------------------------------------------------- 
- -12p0------------12---12----------7h10/12p0------------12---12--------------- 
- --------9h10p0-------------9h10p0-------------9h10p0-------------9h10p0------ 
- ------0--------0----0----0------------------0--------0----0----0--------10b-- 
PM      .        .    .    .                  .        .    .    . 
- ----------------------------------------------------------------------------- 
- ----------------------------------------------------------------------------- 
- ----------------------------------------------------------------------------- 
- -12p0------------12---12----------7h10/12p0------------12---12--------------- 
- --------9h10p0-------------9h10p0-------------9h10p0-------------9h10p0------ 
- ------0--------0----0----0------------------0--------0----0----0--------10b-- 
PM      .        .    .    .                  .        .    .    . 


- ------------------------------------------------------------------------ 
- ------------------------------------------------------------------------ 
- --------------------------------------------------------------------5/9- 
- -12p0------------12---12----------7h10--------------------------4h5----- 
- --------9h10p0-------------9h10p0-----------0-0---0---0-3h5-3h5--------- 
- ------0--------0----0----0-------------12p0-0-0---0---0----------------- 
PM      .        .    .    .                  ........... 
- ------------------------------------------------------------------------ 
- ------------------------------------------------------------------------ 
- --------------------------------------------------------------------5/9- 
- -12p0------------12---12----------7h10--------------------------4h5----- 
- --------9h10p0-------------9h10p0-----------0-0---0---0-3h5-3h5--------- 
- ------0--------0----0----0-------------12p0-0-0---0---0----------------- 
PM      .        .    .    .                  ........... 


- ----------------------------------------------------------------------------- 
- ----------------------------------------------------------------------------- 
- ----------------------------------------------------------------------------- 
- -12p0------------12---12----------7h10/12p0------------12---12--------------- 
- --------9h10p0-------------9h10p0-------------9h10p0-------------9h10p0------ 
- ------0--------0----0----0------------------0--------0----0----0--------10b-- 
PM      .        .    .    .                  .        .    .    . 
- ----------------------------------------------------------------------------- 
- ----------------------------------------------------------------------7------ 
- --------5h7----------------5h7----5h7---------5h7----------------5h7----5b--- 
- -7p0---------7---7----7---------7------7p0---------7---7----7---------------- 
- ----------------------------------------------------------------------------- 
- ------0--------0----0----0------------------0--------0----0----0------------- 
PM      .        .    .    .                  .        .    .    . 


- ----------------------------------------------------------------------------- 
- ----------------------------------------------------------------------------- 
- -------------------------------------------------------12p11----------------- 
- -12p0------------12---12----------7h10-----------------------12p10----------- 
- --------9h10p0-------------9h10p0----------0-0---0---0-------------------9--- 
- ------0--------0----0----0-------------12b-0-0---0---0-------------10h12----- 
PM      .        .    .    .                 ........... 
- ----------------------------------------------------------------------------- 
- ----------------------------------------------------------------------------- 
- --------5h7----------------5h7----5h7------------------12p11----------------- 
- -7p0---------7---7----7---------7----------------------------12p10-------12-- 
- -------------------------------------------0-0---0---0-------------9h10------ 
- ------0--------0----0----0-------------12b-0-0---0---0----------------------- 
PM      .        .    .    .                 ........... 


Riff 5, Guitar 1 & 2 - 01:12 - 01:28 - x2 
- --------------------------------------------------------------- 
- --------------------------------------------------------------- 
- --------------------------------------------------------------- 
- -------------------------------5-----------------------5------- 
- -----0-0---0---0---0-0---0-0-0-3---3-3---3---3-3-3-3-3-3---3-3- 
- -12b-0-0---0---0---0-0---0-0-0-5---5-5---5---5-5-5-5-5-5---5-5- 
PM     .........................     ...................     ... 
- -10----------------------------7------------------------------- 
- -10----------------------------8------------------------------- 
- -11----------------------------7------------------------------- 
- --------------------------------------------------------------- 
- --------------------------------------------------------------- 
- --------------------------------------------------------------- 


- -------------------------------------------------------------------------- 
- -------------------------------------------------------------------------- 
- -------------------------------------------------------------------------- 
- -5-----------------5------------------------------------------------12---- 
- -5---5---5-5-5-5---5---5-5-5------------------9p0--------------9h10------- 
- -5---5---5-5-5-5---5---5-5-5-5h7-12p0-10h12p0-----12p0-10h12p0------------ 
PM     ...........       ..... 
- -12------------------------------10--------------------------------------- 
- -13------------------------------10--------------------------------------- 
- -12------------------------------11--------------------------------------- 
- -------------------------------------------------------------------------- 
- -------------------------------------------------------------------------- 
- -------------------------------------------------------------------------- 


Riff 6 - 01:28 - 01:44 - x2 
- ------------------------------------------------------------------- 
- ------------------------------------------------------------------- 
- -----------5--------------------------------5---------------------- 
- ---------------7--------------------------------7-------------7h10- 
- -5p0--------------------------5h8p5p0---------------------7h8------ 
- -----0-0-0---0---0-0-0-0-7h10---------0-0-0---0---0-0-0-0---------- 
PM     .....   .   .......              .....   .   ....... 

- ----------------------------------------------------------------- 
- ----------------------------------------------------------------- 
- -----------5----------------------------------------------------- 
- ---------------7-------------------------------------------3/7--- 
- -5-----------------------5-------------8---5---------0h3h5------- 
- --h8-8-8-8---8---8-8-8-8--h8-8-8-5-5-5---5---5-0h3h5------------- 
PM     .....   .   .......     .........   .   . 

Riff 7a - 01:44 - 02:00 
- ------------------------------------------------------------------- 
- ------------------------------------------------------------------- 
- -----------5--------------------------------5---------------------- 
- ---------------7--------------------------------7-------------7h10- 
- -5p0------------------------------5p0---------------------7h8------ 
- -----0-0-0---0---0-0-0-0-12p0-0-0-----0-0-0---0---0-0-0-0---------- 
PM     .....   .   .......      ...     .....   .   ....... 

- ----------------------------------------------------------------- 
- ----------------------------------------------------------------- 
- -----------5----------------------------------------------------- 
- ---------------7-------------------------------------------3/7--- 
- -5-----------------------5-------------8---5---------0h3h5------- 
- --h8-8-8-8---8---8-8-8-8--h8-8-8-5-5-5---5---5-0h3h5------------- 
PM     .....   .   .......     .........   .   . 

- ------------------------------------------------------------------- 
- ------------------------------------------------------------------- 
- -----------5--------------------------------5---------------------- 
- ---------------7--------------------------------7-------------7h12- 
- -5p0------------------------------5p0---------------------7h9------ 
- -----0-0-0---0---0-0-0-0-12p0-0-0-----0-0-0---0---0-0-0-0---------- 
PM     .....   .   .......      ...     .....   .   ....... 

- ------------------------------------------------------------------ 
- ------------------------------------------------------------------ 
- ------------------------6h7p6-----------------7------------------- 
- --------------------7h9-------7-------0h5-5p0-----7-7---------5h7- 
- -------12---9---7h9-------------9-------------------------5h7----- 
- -9-9-9----9---9-------------------5-5-----------------5h7--------- 
PM .....    .   .                   ... 

Riff 7b - 01:44 - 02:00 
   T           T              T        T           T           T              T        T 
- ----------------------------15p10h14-15/17p14p10----------------------------15p10h14-15/17p14p10- 
- -15p10h13p10-15/17p10h13p10----------------------15p10h13p10-15/17p10h13p10---------------------- 
- ------------------------------------------------------------------------------------------------- 
- ------------------------------------------------------------------------------------------------- 
- ------------------------------------------------------------------------------------------------- 
- ------------------------------------------------------------------------------------------------- 

   T        T     T     T                    T     T     T     T        T     T     T        T 
- -18p15p10-17p10-14p10----------------------------18p10-17p10-15p14p10-15p10-14p10---------------- 
- ----------------------15/17p11p10h11h13p10-15/17----------------------------------15/17p10-15p11- 
- ------------------------------------------------------------------------------------------------- 
- ------------------------------------------------------------------------------------------------- 
- ------------------------------------------------------------------------------------------------- 
- ------------------------------------------------------------------------------------------------- 

   T           T              T        T           T           T              T        T 
- ----------------------------15p10h14-15/17p14p10----------------------------15p10h14-15/17p14p10- 
- -15p10h13p10-15/17p10h13p10----------------------15p10h13p10-15/17p10h13p10---------------------- 
- ------------------------------------------------------------------------------------------------- 
- ------------------------------------------------------------------------------------------------- 
- ------------------------------------------------------------------------------------------------- 
- ------------------------------------------------------------------------------------------------- 

   T        T     T     T                    T     T     T     T        T     T     T 
- -17p15p10-17p10-14p10----------------------------19p10-17p10-15p14p10-15p10-14p10---------------- 
- ----------------------15/17p14p10h14h15p10-15/17----------------------------------15/17p10h14p10- 
- ------------------------------------------------------------------------------------------------- 
- ------------------------------------------------------------------------------------------------- 
- ------------------------------------------------------------------------------------------------- 
- ------------------------------------------------------------------------------------------------- 

Riff 8a - 02:00 - 02:16 - x2 
- ----------------------------------------------------------------- 
- ----------------------------------------------------------------- 
- ----------------------------------------------------------------- 
- ----------------------------------------------------------------- 
- -0---0-0-0-0-----0---0-0-0-0---0-0-----0-----0---0-0-0----------- 
- -0---0-0-0-0-----0---0-0-0-0---0-0-----0-----0---0-0-0---12b----- 
PM ..................................................... 

- ----------------------------------------------------------------- 
- ----------------------------------------------------------------- 
- ----------------------------------------------------------------- 
- ----------------------------------------------------------------- 
- -----0---0-0---0---0-0---0-0-0-0-0-0---0---0-0-0-----0-0-------9- 
- -----0---0-0---0---0-0---0-0-0-0-0-0---0---0-0-0-0---0-0-10h12--- 
PM     ...........................................     .. 

Riff 8b - 02:00 - 02:16 - x2 
- ----------------------------------------------------------------- 
- ----------------------------------------------------------------- 
- ----------------------------------------------------------------- 
- ----------------------------------------------------------------- 
- ----------------------------------------------------------------- 
- 9-9-9-9-9-9-9-9-9-9-9-9-9-9-9-9-9-9-9-9-9-9-9-9-9-9-9-9-9-9-9-9 

- ----------------------------------------------------------------- 
- ----------------------------------------------------------------- 
- ----------------------------------------------------------------- 
- ----------------------------------------------------------------- 
- ----------------------------------------------------------------- 
- 5-5-5-5-5-5-5-5-5-5-5-5-5-5-5-50-0-0-0-0-0-0-02-2-3-3-4-4-5-5 
PM                                 ............... 

Riff 9a - 02:16 - 02:46 
- ----------------------------------------------------------------- 
- ----------------------------------------------------------------- 
- ----------------------------------------------------------------- 
- ----------------------------------------------------------------- 
- -0---0-0-0-0-----0---0-0-0-0---0-0-----0-----0---0-0-0----------- 
- -0---0-0-0-0-----0---0-0-0-0---0-0-----0-----0---0-0-0---12b----- 
PM ..................................................... 

- ----------------------------------------------------------------- 
- ----------------------------------------------------------------- 
- ----------------------------------------------------------------- 
- ----------------------------------------------------------------- 
- -----2---2-2---2---2-2---2-2-2-2-5-5---5---5-5-5-5-5-5-5-------9- 
- -----4---4-4---4---4-4---4-4-4-4-5-5---5---5-5-5-5-5-5-5-10h12--- 
PM     ................................................... 

- ----------------------------------------------------------------- 
- ----------------------------------------------------------------- 
- ----------------------------------------------------------------- 
- ----------------------------------------------------------------- 
- -0---0-0-0-0-----0---0-0-0-0---0-0-----0-----0---0-0-0----------- 
- -0---0-0-0-0-----0---0-0-0-0---0-0-----0-----0---0-0-0---12b----- 
PM ..................................................... 

- ------------------------------------------------------------------------------------------------- 
- ------------------------------------------------------------------------------------------------- 
- ------------------------------------------------------------------------------------------------- 
- -----------------------------------------------------------------0~------------------------------ 
- -----2---2-2---2---2-2---2-2-2-2-5-5---5---5-5-5-5-5-5-5-------9-0~------------------------------ 
- -----4---4-4---4---4-4---4-4-4-4-5-5---5---5-5-5-5-5-5-5-10h12---0~------------------------------ 
PM     ................................................... 

Riff 10b - 02:16 - 02:32 
- ---------------------------------------------------------5------- 
- -------------------------------------------------7---7-------7--- 
- -7-----7-----7---5---5---7---5---7-----7-----7------------------- 
- ---7-7---7-7---7---7---7---7---7---7-7---7-7---7---7---7---7---7- 
- ----------------------------------------------------------------- 
- ----------------------------------------------------------------- 
PM   ...   ...   .   .   .   .   .   ...   ...   .   .   .   .   . 

- -----------------5----------------------------------------------- 
- -7-----7-----7-------7---5---7---------------------------5------- 
- ---7-7---7-7---7---7---7---7---7-7-----7-----7---5---5-------5--- 
- -----------------------------------5-5---5-5---5---5---5---5---5- 
- ----------------------------------------------------------------- 
- ----------------------------------------------------------------- 
PM   ...   ...   .   .   .   .   .   ...   ...   .   .   .   .   . 

- ---------------------------------------------------------5------- 
- -------------------------------------------------7---7-------7--- 
- -7-----7-----7---5---5---7---5---7-----7-----7------------------- 
- ---7-7---7-7---7---7---7---7---7---7-7---7-7---7---7---7---7---7- 
- ----------------------------------------------------------------- 
- ----------------------------------------------------------------- 
PM   ...   ...   .   .   .   .   .   ...   ...   .   .   .   .   . 

- -----------------5------------------------------------------------------------------------------- 
- -7-----7-----7-------7---5---7---------------------------5--------------------------------------- 
- ---7-7---7-7---7---7---7---7---7-7-----7-----7---5---5-------5---7------------------------------- 
- -----------------------------------5-5---5-5---5---5---5---5------------------------------------- 
- ------------------------------------------------------------------------------------------------- 
- ------------------------------------------------------------------------------------------------- 
PM   ...   ...   .   .   .   .   .   ...   ...   .   .   .   . 


Riff 11, Guitar 1 & 2 - 02:32 - 03:28 - x6 
- ------------------------------------------------------------ 
- /15------------\11------------\8-------------\7------------- 
- ------------------------------------------------------------ 
- ------------------------------------------------------------ 
- ------------------------------------------------------------ 
- ------------------------------------------------------------ 
- 
- ------------------------------------------------------------ 
- ------------------------------------------------------------ 
- ------------------------------------------------------------ 
- /12------------\18------------\5-------------\4------------- 
- ------------------------------------------------------------ 
- ------------------------------------------------------------ 


Riff 12a - 03:00 - 03:28 
- ------------------------------------------------------------------------------------- 
- ------------------------------------------------------------------------------------- 
- -14-------14-------14----12----12----11----12----15-------15-------15----14----12---- 
- ----12-12----12-12----12----12----12----12----12----12-12----12-12----12----12----12- 
- ------------------------------------------------------------------------------------- 
- ------------------------------------------------------------------------------------- 
PM    .....    .....    ..    ..    ..    ..    ..    .....    .....    ..    ..    .. 

- ------------------------------------------------------------------------------------- 
- -------------------------------------------------------------------------------15---- 
- -14-------14-------14----12----12----11----12----15-------15-------11----14---------- 
- ----12-12----12-12----12----12----12----12----12----12-12----12-12----12----12----12- 
- ------------------------------------------------------------------------------------- 
- ------------------------------------------------------------------------------------- 
PM    .....    .....    ..    ..    ..    ..    ..    .....    .....    ..    ..    .. 

- ------------------------------------------------------------------------------------- 
- ------------------------------------------------------------------------------------- 
- -14-------14-------14----12----12----11----12----15-------15-------15----14----12---- 
- ----12-12----12-12----12----12----12----12----12----12-12----12-12----12----12----12- 
- ------------------------------------------------------------------------------------- 
- ------------------------------------------------------------------------------------- 
PM    .....    .....    ..    ..    ..    ..    ..    .....    .....    ..    ..    .. 

- ------------------------------------------------------------------------------------- 
- -------------------------------------------------------------------------------15---- 
- -14-------14-------14----12----12----11----12----15-------15-------11----14---------- 
- ----12-12----12-12----12----12----12----12----12----12-12----12-12----12----12----12- 
- ------------------------------------------------------------------------------------- 
- ------------------------------------------------------------------------------------- 
PM    .....    .....    ..    ..    ..    ..    ..    .....    .....    ..    ..    .. 

- ------------------------------------------------------------------------------------- 
- ------------------------------------------------------------------------------------- 
- -14-------14-------14----12----12----11----12----15-------15-------15----14----12---- 
- ----12-12----12-12----12----12----12----12----12----12-12----12-12----12----12----12- 
- ------------------------------------------------------------------------------------- 
- ------------------------------------------------------------------------------------- 
PM    .....    .....    ..    ..    ..    ..    ..    .....    .....    ..    ..    .. 

- ------------------------------------------------------------------------------------- 
- -------------------------------------------------------------------------------15---- 
- -14-------14-------14----12----12----11----12----15-------15-------11----14---------- 
- ----12-12----12-12----12----12----12----12----12----12-12----12-12----12----12----12- 
- ------------------------------------------------------------------------------------- 
- ------------------------------------------------------------------------------------- 
PM    .....    .....    ..    ..    ..    ..    ..    .....    .....    ..    ..    .. 

- ------------------------------------------------------------------------------------- 
- ------------------------------------------------------------------------------------- 
- -14-------14-------14----12----12----11----12----15-------15-------15----14----12---- 
- ----12-12----12-12----12----12----12----12----12----12-12----12-12----12----12----12- 
- ------------------------------------------------------------------------------------- 
- ------------------------------------------------------------------------------------- 
PM    .....    .....    ..    ..    ..    ..    ..    .....    .....    ..    ..    .. 

- ------------------------------------------------------------------------------------------------- 
- -------------------------------------------------------------------------------15---------------- 
- -14-------14-------14----12----12----11----12----15-------15-------11----14----------14----11---- 
- ----12-12----12-12----12----12----12----12----12----12-12----12-12----12----12----12----12----12- 
- ------------------------------------------------------------------------------------------------- 
- ------------------------------------------------------------------------------------------------- 
PM    .....    .....    ..    ..    ..    ..    ..    .....    .....    ..    ..    ..    ..    .. 

Riff 12b - 03:14 - 03:28 
- ------------------------------------------------------------------------------------- 
- -15-------15-------15----15----13----15----13----15-------15-------13----15----15---- 
- ----11-11----11-11----11----11----11----11----11----12-12----12-12----12----12----12- 
- ------------------------------------------------------------------------------------- 
- ------------------------------------------------------------------------------------- 
- ------------------------------------------------------------------------------------- 
PM    .....    .....    ..    ..    ..    ..    ..    .....    .....    ..    ..    .. 

- -------------------------------------------------------------------------------14---- 
- -15-------15-------13----15----13----15----13----15-------15-------13----15---------- 
- ----12-12----11-12----12----12----12----12----12----11-11----11-11----11----11----11- 
- ------------------------------------------------------------------------------------- 
- ------------------------------------------------------------------------------------- 
- ------------------------------------------------------------------------------------- 
PM    .....    .....    ..    ..    ..    ..    ..    .....    .....    ..    ..    .. 

- ------------------------------------------------------------------------------------- 
- -15-------15-------15----15----13----15----13----15-------15-------13----15----15---- 
- ----11-11----11-11----11----11----11----11----11----12-12----12-12----12----12----12- 
- ------------------------------------------------------------------------------------- 
- ------------------------------------------------------------------------------------- 
- ------------------------------------------------------------------------------------- 
PM    .....    .....    ..    ..    ..    ..    ..    .....    .....    ..    ..    .. 

- -------------------------------------------------------------------------------14---------------- 
- -15-------15-------13----15----13----15----13----15-------15-------13----15----------15----13---- 
- ----12-12----11-12----12----12----12----12----12----11-11----11-11----11----11----11----11----11- 
- ------------------------------------------------------------------------------------------------- 
- ------------------------------------------------------------------------------------------------- 
- ------------------------------------------------------------------------------------------------- 
PM    .....    .....    ..    ..    ..    ..    ..    .....    .....    ..    ..    ..    ..    .. 


Riff 13, Guitar 1 & 2 - 03:28 - 03:45 
- ------------------------------------------------------------------- 
- ------------------------------------------------------------------- 
- ------------------------------------------------------------------- 
- -------0----------------------------------------------------------- 
- -0-0---0-----0-----0-0---0-----0-------0---0---0-0-------------9b-- 
- -0-0---0-----0-----0-0---0-----0-4-5-0-0---0---0-0---12--10h12----- 
PM ...         ...................       ........... 
- ------------------------------------------------------------------- 
- ------------------------------------------------------------------- 
- ------------------------------------------------------------------- 
- -------0----------------------------------------------------------- 
- -0-0---0-----0-----0-0---0-----0-------0---0---0-0-------------9b-- 
- -0-0---0-----0-----0-0---0-----0-4-5-0-0---0---0-0---12--10h12----- 
PM ...         ...................       ........... 


- ----------------------------------------------------------------- 
- ----------------------------------------------------------------- 
- ----------------------------------------------------------------- 
- -------0---------------0----------------------------------------- 
- -0-0---0---------0-0---0---0---0---0-0---0-----------0-0---0---0- 
- -0-0---0---0-4-5-0-0---0---0---0---0-0---0-----0-4-5-0-0---0---0- 
PM ...             ...       ...............           ........... 
- ----------------------------------------------------------------- 
- ----------------------------------------------------------------- 
- ----------------------------------------------------------------- 
- -------0---------------0----------------------------------------- 
- -0-0---0---------0-0---0---0---0---0-0---0-----------0-0---0---0- 
- -0-0---0---0-4-5-0-0---0---0---0---0-0---0-----0-4-5-0-0---0---0- 
PM ...             ...       ...............           ........... 


- ---------------------------------------------------------------------- 
- ---------------------------------------------------------------------- 
- ----------------------------------------------------------------11h12- 
- -------0---------------------------------------------12p0-10h12------- 
- -0-0---0-----0-----0-0---0-----0-------0---0---0-0-------------------- 
- -0-0---0-----0-----0-0---0-----0-4-5-0-0---0---0-0-------------------- 
PM ...         ...................       ........... 
- ---------------------------------------------------------------------- 
- ---------------------------------------------------------------------- 
- ---------------------------------------------------------------------- 
- -------0-------------------------------------------------------------- 
- -0-0---0-----0-----0-0---0-----0-------0---0---0-0--------------9h10-- 
- -0-0---0-----0-----0-0---0-----0-4-5-0-0---0---0-0---12p0-10h12------- 
PM ...         ...................       ........... 


- ----------------------------------------------------------------------------------- 
- ----------------------------------------------------------------------------------- 
- ----------------------------------------------------------------------------------- 
- -------0-----------------0-----------------------------------------------------7--- 
- -0-0---0---------9-0-0---0---0---0---0-0---0-----------0-0---0---0-0-0-----4h5----- 
- -0-0---0---10h12---0-0---0---0---0---0-0---0-----0-4-5-0-0---0---0-0-0-4h5--------- 
PM ...               ...       ...............           ............... 
- ----------------------------------------------------------------------------------- 
- ----------------------------------------------------------------------------------- 
- ----------------------------------------------------------------------------------- 
- -------0--------12-------0-----------------------------------------------------7--- 
- -0-0---0---9h10----0-0---0---0---0---0-0---0-----------0-0---0---0-0-0-----4h5----- 
- -0-0---0-----------0-0---0---0---0---0-0---0-----0-4-5-0-0---0---0-0-0-4h5--------- 
PM ...               ...       ...............           ............... 


Riff 7b - 03:45 - 04:01 

Riff 14 - 03:45 - 04:01 
- ----------------------------------------------------------------- 
- ----------------------------------------------------------------- 
- -----------7---------------7---------------7-----------5---7----- 
- ----------------------------------------------------------------- 
- -------9---------------9---------------9------------------------- 
- -0-0-0---0---0-0-0-0-0---0---0-0-0-0-0---0---0-0-0-0-0---0---0-0- 
PM .....   .   .........   .   .........   .   .........   .   ... 

- ----------------------------------------------------------------- 
- ----------------------------------------------------------------- 
- ----------------------------------------------------------------- 
- -----------7---------------7-------------------------------3/7--- 
- -------5---------------5---------------5---3-----3-----3h5------- 
- -8-8-8---8---8-8-8-8-8---8---8-8-5-5-5---5---5-5---5p4----------- 
PM .....   .   .........   .   .........   .   ... 

- ----------------------------------------------------------------- 
- ----------------------------------------------------------------- 
- -----------7---------------7---------------7-----------5---7----- 
- ----------------------------------------------------------------- 
- -------9---------------9---------------9------------------------- 
- -0-0-0---0---0-0-0-0-0---0---0-0-0-0-0---0---0-0-0-0-0---0---0-0- 
PM .....   .   .........   .   .........   .   .........   .   ... 

- ----------------------------------------------------------------- 
- ----------------------------------------------------------------- 
- -------6---7-----------6---7---------------7---------------7----- 
- ---------------------------------------9-------------5/7--------- 
- ----------------------------------------------------------------- 
- -9-9-9---9---9-9-9-9-9---9---9-9-5-5-5---5---5-5-5-5-----5---5-5- 
PM .....   .   .........   .   .........   .   .......     .   ... 


Riff 15a, Guitar 1 & 2 - 4:10 - 04:45 
- ----------------------------------------------------------------- 
- ----------------------------------------------------------------- 
- ----------------------------------------------------------------- 
- ----------------------------------------------------------------- 
- -0---------0-0-0-0---------0-0-0-0-----0---0-0-0-0-0-------0-0-0- 
- -0---------0-0-0-0---------0-0-0-0-----0---0-0-0-0-0-------0-0-0- 
PM ............................................................... 
- ----------------------------------------------------------------- 
- ----------------------------------------------------------------- 
- -11-------------------------------------------------------------- 
- -0(x32)---------------------------------------------------------- 
- -9--------------------------------------------------------------- 
- ----------------------------------------------------------------- 


- ----------------------------------------------------------------- 
- ----------------------------------------------------------------- 
- ----------------------------------------------------------------- 
- ----------------------------------------------------------------- 
- -2---------2-2-2-2-2-------2---2-5-------5-5---5-----5-5-5-5-5--- 
- -4---------4-4-4-4-4-------4---4-5-------5-5---5-----5-5-5-5-5--- 
PM ............................................................... 
- ----------------------------------------------------------------- 
- ----------------------------------------------------------------- 
- -7-------------------------------------------4-----------7------- 
- -0-------------------------------5-----------0-----------0------- 
- -5(x16)--------------------------x-----------2(x6)-------5(x4)--- 
- ---------------------------------5(x6)--------------------------- 


- ----------------------------------------------------------------- 
- ----------------------------------------------------------------- 
- ----------------------------------------------------------------- 
- ----------------------------------------------------------------- 
- -0---------0-0-0-0---------0-0-0-0-----0---0-0-0-0-0-------0-0-0- 
- -0---------0-0-0-0---------0-0-0-0-----0---0-0-0-0-0-------0-0-0- 
PM ............................................................... 
- ----------------------------------------------------------------- 
- ----------------------------------------------------------------- 
- -11------------------------------12----------14------------------ 
- -0(x16)--------------------------0-----------0------------------- 
- -9-------------------------------10(x6)------12(x10)------------- 
- ----------------------------------------------------------------- 


- ----------------------------------------------------------------- 
- ----------------------------------------------------------------- 
- ----------------------------------------------------------------- 
- ----------------------------------------------------------------- 
- -2---------2-2-2-2-2-------2---2-2-------2-2---2-----2-2-2-2-2--- 
- -4---------4-4-4-4-4-------4---4-4-------4-4---4-----4-4-4-4-4--- 
PM ............................................................... 
- ----------------------------------------------------------------- 
- ----------------------------------------------------------------- 
- -6-------------------------------7-----------11------------------ 
- -0-------------------------------0-----------0------------------- 
- -4(x16)--------------------------5(x6)-------9(x10)-------------- 
- ----------------------------------------------------------------- 


- ----------------------------------------------------------------- 
- ----------------------------------------------------------------- 
- ----------------------------------------------------------------- 
- ----------------------------------------------------------------- 
- -0---------0-0-0-0---------0-0-0-0-----0---0-0-0-0-0-------0-0-0- 
- -0---------0-0-0-0---------0-0-0-0-----0---0-0-0-0-0-------0-0-0- 
PM ............................................................... 
- ----------------------------------------------------------------- 
- ----------------------------------------------------------------- 
- -11-------------------------------------------------------------- 
- -0(x32)---------------------------------------------------------- 
- -9--------------------------------------------------------------- 
- ----------------------------------------------------------------- 


- ----------------------------------------------------------------- 
- ----------------------------------------------------------------- 
- ----------------------------------------------------------------- 
- ----------------------------------------------------------------- 
- -2---------2-2-2-2-2-------2---2-5-------5-5---5-----5-5-5-5-5--- 
- -4---------4-4-4-4-4-------4---4-5-------5-5---5-----5-5-5-5-5--- 
PM ............................................................... 
- ----------------------------------------------------------------- 
- ----------------------------------------------------------------- 
- -7-------------------------------------------4-----------7------- 
- -0-------------------------------5-----------0-----------0------- 
- -5(x16)--------------------------x-----------2(x6)-------5(x4)--- 
- ---------------------------------5(x6)--------------------------- 


- ----------------------------------------------------------------- 
- ----------------------------------------------------------------- 
- ----------------------------------------------------------------- 
- ----------------------------------------------------------------- 
- -0---------0-0-0-0---------0-0-0-0-----0---0-0-0-0-0-------0-0-0- 
- -0---------0-0-0-0---------0-0-0-0-----0---0-0-0-0-0-------0-0-0- 
PM ............................................................... 
- ----------------------------------------------------------------- 
- ----------------------------------------------------------------- 
- -11------------------------------12----------14------------------ 
- -0(x16)--------------------------0-----------0------------------- 
- -9-------------------------------10(x6)------12(x10)------------- 
- ----------------------------------------------------------------- 


- ------------------------------------------------------------------------------------------------- 
- ------------------------------------------------------------------------------------------------- 
- ------------------------------------------------------------------------------------------------- 
- -5---------------------------------------------------------------0------------------------------- 
- -5---------------------------------------------------------------0------------------------------- 
- -5---------------------------------------------------------------0------------------------------- 
- 
- ------------------------------------------------------------------------------------------------- 
- ------------------------------------------------------------------------------------------------- 
- -12--------------------------------------------------------------7------------------------------- 
- -0---------------------------------------------------------------0------------------------------- 
- -10--------------------------------------------------------------5------------------------------- 
- ------------------------------------------------------------------------------------------------- 


Riff 15b - 04:31 - 04:45 
- -17----15---------------------------------------- 
- -------------17--15------------------------------ 
- ------------------------------------------------- 
- ------------------------------------------------- 
- ------------------------------------------------- 
- ------------------------------------------------- 
- 
- ------------------------------------------------- 
- ------------------------------------------------- 
- -14----12---------------------------------------- 
- -------------14--12------------------------------ 
- ------------------------------------------------- 
- ------------------------------------------------- 

Symbols 

PM... Palm Mute notes with (...) under them 
AP... Alternate Pick notes with (...) under them 
h     Hammer On 
p     Pull Off 
    Harmonic 
/     Slide Up 
\     Slide Down 
x     Dead Note 
b     Bend 
hb    Hold Bend 
pb    Pre-Bend 
r     Release Bend 
(x )  Play Notes x amount of times 
~     Let Ring 
\\\   Pick Slide Down 
///   Pick Slide Up 
/ 3 \ Notes are triplets (3 notes in the space of two) 
w\    Whammy Bar Down 
w/    Whammy Bar Up 
wh    Whammy Bar Hold 
T     Right Hand Tap 
L     Left Hand Tap  
  

top 5 | august burns red
top rock'n roll
Outras músicas do artista letras do(a) August Burns Red
Top cifras »Top artistas »
Petaxxon Comunicação Online
Cifras.com.br - Melhor e mais completo site de cifras e tablaturas do Brasil
Mais de 1 milhão de acordes de músicas cadastradas desde 2003
As informações contidas no nosso site são colaborações de seus usuários e podem conter erros, sendo assim, não nos responsabilizamos sobre nenhuma destas.
close
menos
mais
close
Cor dos acordes:

Cor da letra:

 

save
close
close
 
redimensionar