Cifras e Tablaturas
Avatar

Avatar

House Of Eternal Hunt

Cifras Cancelar Versão de Impressão
cifras

Avatar - House Of Eternal Hunt

fixar na tela  
Exibindo: vídeo-aula ver clipes redimensionar
  
Intro 

d|--------|----------------|---------|7-9-10-9h10p9-7|12-12-10-10h12p10-10| 
A|--------|----------------|---------|---------------|--------------------| 
F|--9-9-12|11h12p11-9-8-9--|--9-9-8-9|---------------|--------------------| 
C|9-------|---------------9|9--------|---------------|--------------------| 
G|--------|----------------|---------|---------------|--------------------| 
C|--------|----------------|---------|---------------|--------------------| 


d|---------------|---------------------| 
A|12-12-10-8-12-8|---10-8-----8-5-7-4-5| 
F|---------------|11------11-----------| 
C|---------------|---------------------| 
G|---------------|---------------------| 
C|---------------|---------------------| 



d|--------|----------------|---------|7-9-10-9h10p9-7|12-12-10-10h12p10-10| 
A|--------|----------------|---------|---------------|--------------------| 
F|--9-9-12|11h12p11-9-8-9--|--9-9-8-9|---------------|--------------------| 
C|9-------|---------------9|9--------|---------------|--------------------| 
G|--------|----------------|---------|---------------|--------------------| 
C|--------|----------------|---------|---------------|--------------------| 


d|---------------|--------------------| 
A|12-12-10-8-12-8|---10-8----8-5-7-4-5| 
F|---------------|11------11----------| 
C|---------------|--------------------| 
G|---------------|--------------------| 
C|---------------|--------------------| 



Interlude 

d|---------------|-------------|------------|---------------| 
A|---------------|-------------|------------|---------------| 
F|9--------------|5------------|------------|---------------| 
C|9--------------|5------------|5-----------|4-4-4-4-4-4-4-4| 
G|7--777777777777|3--3333333333|5-----------|4-4-4-4-4-4-4-4| 
C|---------------|-------------|5--555555555|4-4-4-4-4-4-4-4| 
     ************    **********    ********* 

Chorus 

d|----------|------------|-------------|--------| 
A|----------|------------|-------------|--------| 
F9|9-7-5-7-9|7-7-4------4|5-5-2-----2-5|4-2-----| 
C|----------|------5--5--|------4------|-----5-4| 
G|----------|------------|-------------|--------| 
C|----------|------------|-------------|--------| 

d|12-12-10-8-10-12|10-10-7-----7|---------------|7--5-----|---------| 
A|----------------|--------8-8--|10-10-7----7-10|-----8--7|---------| 
F|----------------|-------------|--------8------|---------|4-2------| 
C|----------------|-------------|---------------|---------|----5-4-2| 
G|----------------|-------------|---------------|---------|---------| 
C|----------------|-------------|---------------|---------|---------| 




Verse 

d|------------------|---------------------| 
A|------------------|---------------------| 
F|------------------|---------------------| 
C|------------------|---------------------|(x3) 
G|2-------2---------|2-------2-1h2p1---1-0| 
C|2-2-2-2-2-2222-5-8|2-2-2-2---------5----| 


d|------------------|--------------| 
A|------------------|--------------| 
F|------------------|--------------| 
C|------------------|----------5--4| 
G|2-------2---------|2-------2-5--4| 
C|2-2-2-2-2-2222-5-8|2-2-2-2-2-5--4| 

d|------------------|----------------|------------------|---------------------| 
A|------------------|----------------|------------------|---------------------| 
F|------------------|----------------|------------------|---------------------| 
C|------------------|----------------|------------------|---------------------| 
G|3-------3------3--|3-------3------3|3-------3------3--|6-------6-5h6p5------| 
C|--7-7-7---7777---7|--7-7-7---7777--|--5-5-5---5555---5|--4-4-4---------7-5-4| 

d|------------------|---------------------| 
A|------------------|---------------------| 
F|------------------|---------------------| 
C|------------------|---------------------| 
G|2-------2---------|2-------2-1h2p1---1-0| 
C|2-2-2-2-2-2222-5-8|2-2-2-2---------5----| 

d|------------------|--------------| 
A|------------------|--------------| 
F|------------------|--------------| 
C|------------------|----------5--4| 
G|2-------2---------|2-------2-5--4| 
C|2-2-2-2-2-2222-5-8|2-2-2-2-2-5--4| 


Pre-Chorus 

d|-----------------| 
A|-----------------| 
F|-----------------| 
C|-----------------|(x3) 
G|-----------------| 
C|0h2-0--0-0h2-0--0| 
      *  *     *  * 


Chorus 

d|----------|------------|-------------|--------| 
A|----------|------------|-------------|--------| 
F9|9-7-5-7-9|7-7-4------4|5-5-2-----2-5|4-2-----| 
C|----------|------5--5--|------4------|-----5-4| 
G|----------|------------|-------------|--------| 
C|----------|------------|-------------|--------| 

d|12-12-10-8-10-12|10-10-7-----7|---------------|7--5-----|---------| 
A|----------------|--------8-8--|10-10-7----7-10|-----8--7|---------| 
F|----------------|-------------|--------8------|---------|4-2------| 
C|----------------|-------------|---------------|---------|----5-4-2| 
G|----------------|-------------|---------------|---------|---------| 
C|----------------|-------------|---------------|---------|---------| 


Post-Chorus 

d|--------|----------------|---------|7-9-10-9h10p9-7|12-12-10-10h12p10-10| 
A|--------|----------------|---------|---------------|--------------------| 
F|--9-9-12|11h12p11-9-8-9--|--9-9-8-9|---------------|--------------------| 
C|9-------|---------------9|9--------|---------------|--------------------| 
G|--------|----------------|---------|---------------|--------------------| 
C|--------|----------------|---------|---------------|--------------------| 


d|---------------|--------------------| 
A|12-12-10-8-12-8|---10-8----8-5-7-4-5| 
F|---------------|11------11----------| 
C|---------------|--------------------| 
G|---------------|--------------------| 
C|---------------|--------------------| 



d|--------|----------------|---------|7-9-10-9h10p9-7|12-12-10-10h12p10-10| 
A|--------|----------------|---------|---------------|--------------------| 
F|--9-9-12|11h12p11-9-8-9--|--9-9-8-9|---------------|--------------------| 
C|9-------|---------------9|9--------|---------------|--------------------| 
G|--------|----------------|---------|---------------|--------------------| 
C|--------|----------------|---------|---------------|--------------------| 


d|---------------|--------------------| 
A|12-12-10-8-12-8|---10-8----8-5-7-4-5| 
F|---------------|11------11----------| 
C|---------------|--------------------| 
G|---------------|--------------------| 
C|---------------|--------------------| 


Verse 

d|------------------|---------------------| 
A|------------------|---------------------| 
F|------------------|---------------------| 
C|------------------|---------------------|(x3) 
G|2-------2---------|2-------2-1h2p1---1-0| 
C|2-2-2-2-2-2222-5-8|2-2-2-2---------5----| 


d|------------------|--------------| 
A|------------------|--------------| 
F|------------------|--------------| 
C|------------------|----------5--4| 
G|2-------2---------|2-------2-5--4| 
C|2-2-2-2-2-2222-5-8|2-2-2-2-2-5--4| 

d|------------------|----------------|------------------|---------------------| 
A|------------------|----------------|------------------|---------------------| 
F|------------------|----------------|------------------|---------------------| 
C|------------------|----------------|------------------|---------------------| 
G|3-------3------3--|3-------3------3|3-------3------3--|6-------6-5h6p5------| 
C|--7-7-7---7777---7|--7-7-7---7777--|--5-5-5---5555---5|--4-4-4---------7-5-4| 

d|------------------|---------------------| 
A|------------------|---------------------| 
F|------------------|---------------------| 
C|------------------|---------------------| 
G|2-------2---------|2-------2-1h2p1---1-0| 
C|2-2-2-2-2-2222-5-8|2-2-2-2---------5----| 

d|------------------|--------------| 
A|------------------|--------------| 
F|------------------|--------------| 
C|------------------|----------5--4| 
G|2-------2---------|2-------2-5--4| 
C|2-2-2-2-2-2222-5-8|2-2-2-2-2-5--4| 


Pre-Chorus 

d|-----------------| 
A|-----------------| 
F|-----------------| 
C|-----------------|(x3) 
G|-----------------| 
C|0h2-0--0-0h2-0--0| 
      *  *     *  * 

Chorus 

d|----------|------------|-------------|--------| 
A|----------|------------|-------------|--------| 
F9|9-7-5-7-9|7-7-4------4|5-5-2-----2-5|4-2-----| 
C|----------|------5--5--|------4------|-----5-4| 
G|----------|------------|-------------|--------| 
C|----------|------------|-------------|--------| 

d|12-12-10-8-10-12|10-10-7-----7|---------------|7--5-----|---------| 
A|----------------|--------8-8--|10-10-7----7-10|-----8--7|---------| 
F|----------------|-------------|--------8------|---------|4-2------| 
C|----------------|-------------|---------------|---------|----5-4-2| 
G|----------------|-------------|---------------|---------|---------| 
C|----------------|-------------|---------------|---------|---------| 

Instrumental 
Acoustic solo 


Bridge 

d|-----------|------|-------------|-----------------|-----------|----------|------------------| 
A|-----------|------|-------------|-----------------|-----------|----------|------------------| 
F|-----------|------|---------9---|--------7--------|-----------|----------|9-----------------| 
C|2-----5-4-2|---7-5|7-7-9-10---10|9-9p7h9-----2----|5-4-3---7-5|7-9-7-9-10|--10-9-9p7h9-7-5-4| 
G|---2-------|2-----|-------------|----------------2|------2----|----------|------------------| 
C|-----------|------|-------------|-----------------|-----------|----------|------------------| 

Pre-Chorus 

d|-----------------| 
A|-----------------| 
F|-----------------| 
C|-----------------|(x3) 
G|-----------------| 
C|0h2-0--0-0h2-0--0| 
      *  *     *  * 

Chorus 

d|----------|------------|-------------|--------| 
A|----------|------------|-------------|--------| 
F9|9-7-5-7-9|7-7-4------4|5-5-2-----2-5|4-2-----| 
C|----------|------5--5--|------4------|-----5-4| 
G|----------|------------|-------------|--------| 
C|----------|------------|-------------|--------| 

d|12-12-10-8-10-12|10-10-7-----7|---------------|7--5-----|---------| 
A|----------------|--------8-8--|10-10-7----7-10|-----8--7|---------| 
F|----------------|-------------|--------8------|---------|4-2------| 
C|----------------|-------------|---------------|---------|----5-4-2| 
G|----------------|-------------|---------------|---------|---------| 
C|----------------|-------------|---------------|---------|---------| 


************************************ 

| h   Hammer-on 
| p   Pull-off 
| *   Palm mute 

************************************ 
  

cifra enviadasem correções
enviado porenviada por:ang-letra
top 5 | avatar
top rock'n roll
Outras músicas do artista letras do(a) Avatar
Top cifras »Top artistas »
Petaxxon Comunicação Online
Cifras.com.br - Melhor e mais completo site de cifras e tablaturas do Brasil
Mais de 1 milhão de acordes de músicas cadastradas desde 2003
As informações contidas no nosso site são colaborações de seus usuários e podem conter erros, sendo assim, não nos responsabilizamos sobre nenhuma destas.
close
menos
mais
close
Cor dos acordes:

Cor da letra:

 

save
close
close
 
redimensionar