Cifras e Tablaturas
Avenged Sevenfold

Avenged Sevenfold

Not Ready To Die

Cifras Cancelar Versão de Impressão Print

Avenged Sevenfold - Not Ready To Die

Tom: D

  			
Intro (Interlude) 
Guitar 1:
 
e||--17--13------------------------------17--------16---| 
B||----------15----------------------15--------15-------| 
G||--------------14--------------14---------------------| 
D||------------------15------15-------------------------| 
A||----------------------17-----------------------------| 
D||-----------------------------------------------------| 


e||--15--12--------------------------12--15----12--13---| 
B||----------14------------------14---------------------| 
G||--------------14--12------12-------------------------| 
D||----------------------14-----------------------------| 
A||-----------------------------------------------------| 
D||-----------------------------------------------------| 


e||--13--10------------------------------13--------12---| 
B||----------11----------------------11--------11-------| 
G||--------------10--------------10---------------------| 
D||------------------12------12-------------------------| 
A||----------------------13-----------------------------| 
D||-----------------------------------------------------| 


e||--10---12---9--------10---12---/---17---| 
B||----------------------------------------| 
G||----------------------------------------| 
D||----------------------------------------| 
A||----------------------------------------| 
D||----------------------------------------| 


Guitar 2: 
e||--13--10--------------------------10--13----10--12--| 
B||----------10------------------10--------------------| 
G||--------------10------------------------------------| 
D||------------------12------12------------------------| 
A||----------------------12----------------------------| 
D||----------------------------------------------------| 


e||--12--9------------------------9--12----9--10---| 
B||---------10-------------------------------------| 
G||-------------12--9------9--12-------------------| 
D||--------------------11--------------------------| 
A||------------------------------------------------| 
D||------------------------------------------------| 


e||--10---------------------------------10-----------| 
B||------11-------------------------11--------11--9--| 
G||----------10-----------------10-------------------| 
D||--------------12----------------------------------| 
A||------------------13--8--13-----------------------| 
D||--------------------------------------------------| 

e||-------------------------------------------------| 
B||--9---9---10------12---14---15------14--12--14---| 
G||-------------------------------------------------| 
D||-------------------------------------------------| 
A||-------------------------------------------------| 
D||-------------------------------------------------| 



Intro 
Guitar 1: 
e||--------------------------------|--------------------------------| 
B||--------------------------------|--------------------------------| 
G||--------------------------------|--------------------------------| 
D||--7-3---------------7~-----6~---|--5-2---------------5~---2-3~---| 
A||------5-0-------0-5------5------|------4-0-------1-4-------------| 
D||----------3-0-3-----------------|----------5-2-5-----------------| 


e||--------------------------------|--------------------------------| 
B||--------------------------------|--------------------------------| 
G||--------------------------------|--------------------------------| 
D||--7-3---------------7~-----6~---|--5-2---------------5~---2------| 
A||------5-0-------0-5------5------|------4-0-------1-4-------------| 
D||----------3-0-3-----------------|----------5-2-5-----------------| 


Guitar 2:
e||----------------------------------|--------------------------------| 
B||----------------------------------|--------------------------------| 
G||--10-7-------------7-10~---7-9~---|--9-6-------------6-9~---6------| 
D||-------7---------7----------------|------7---------7---------------| 
A||---------8-5-0-8------------------|--------7-4-0-7-----------------| 
D||----------------------------------|--------------------------------| 



Guitar 1:
e||---------------------------------------------------------------| 
B||---------------------------------------------------------------| 
G||---/14w----12b14r12---10~-----w--w--w--------------------------| 
D||------------------------------------------14b15r14---12~---w---| 
A||---------------------------------------------------------------| 
D||---------------------------------------------------------------| 


Guitar 2:
e||---/13w----12b13r12---10~-----w--w--w--------------------------| 
B||---------------------------------------------------------------| 
G||------------------------------------------12b14r12---10~---w---| 
D||---------------------------------------------------------------| 
A||---------------------------------------------------------------| 
D||---------------------------------------------------------------| 


Guitar 3: 
e||----------------------------------------------------------| 
B||----------------------------------------------------------| 
G||----------------------------------------------------------| 
D||--0-------------------------------------------------------| 
A||--0--0-0-0-0-0-0-0-0-0-0-0-0-0-0-0-0-0-0-0-0-0-0-0-0-0-0--| 
D||--0--0-0-0-0-0-0-0-0-0-0-0-0-0-0-0-0-0-0-0-0-0-0-0-0-0-0--| 
        . . . . . . . . . . . . . . . . . . . . . . . . . . 


Verse 
Guitar 1: 
e||-----------------------------------------------------------------| 
B||-----------------------------------------------------------------| 
G||-----------------------------------------------------------------| 
D||--0-----------------------------6--------------------------------| 
A||--0--0-0-0-0-0-0-0-0-0-0-0-0-0--7--7-7-7-7-7-7-7-7-7-7-----------| 
D||--0--0-0-0-0-0-0-0-0-0-0-0-0-0--6--6-6-6-6-6-6-6-6-6-6--7-8-7-3--| 
        . . . . . . . . . . . . .     . . . . . . . . . . 

e||-------------------------------------------------------------------| 
B||-------------------------------------------------------------------| 
G||-------------------------------------------------------------------| 
D||--5-----------------------------3----------------------------------| 
A||--5--5-5-5-5-5-5-5-5-5-5-5-5-5--3--3-3-3-3-3-3---8-5------7-5------| 
D||--5--5-5-5-5-5-5-5-5-5-5-5-5-5--3--3-3-3-3-3-3-------7-0------7-6--| 
        . . . . . . . . . . . . .     . . . . . . 

e||-----------------------------------------------------------------| 
B||-----------------------------------------------------------------| 
G||-----------------------------------------------------------------| 
D||--0-----------------------------6--------------------------------| 
A||--0--0-0-0-0-0-0-0-0-0-0-0-0-0--7--7-7-7-7-7-7-7-7-7-7-----------| 
D||--0--0-0-0-0-0-0-0-0-0-0-0-0-0--6--6-6-6-6-6-6-6-6-6-6--7-8-7-3--| 
        . . . . . . . . . . . . .     . . . . . . . . . . 

e||------------------------------------------------------------------| 
B||------------------------------------------------------------------| 
G||------------------------------------------------------------------| 
D||--5---------------3---------------7---------------8---------------| 
A||--5--5-5-5-5-5-5--3--3-3-3-3-3-3--7--7-7-7-7-7-7--8--8-8-8-8-8-8--| 
D||--5--5-5-5-5-5-5--3--3-3-3-3-3-3--7--7-7-7-7-7-7--8--8-8-8-8-8-8--| 
        . . . . . .     . . . . . .     . . . . . .     . . . . . . 


Guitar 2: 
e||-----------------------------------------------------------------| 
B||-----------------------------------------------------------------| 
G||-----------------------------------------------------------------| 
D||--0-----------------------------6--------------------------------| 
A||--0--0-0-0-0-0-0-0-0-0-0-0-0-0--7--7-7-7-7-7-7-7-7-7-7--3-5-3-0--| 
D||--0--0-0-0-0-0-0-0-0-0-0-0-0-0--6--6-6-6-6-6-6-6-6-6-6-----------| 
        . . . . . . . . . . . . .     . . . . . . . . . . 

e||------------------------------------------------------------------| 
B||------------------------------------------------------------------| 
G||------------------------------------------------------------------| 
D||--5-----------------------------3---------------7-3------6-3------| 
A||--5--5-5-5-5-5-5-5-5-5-5-5-5-5--3--3-3-3-3-3-3------5-0------5-4--| 
D||--5--5-5-5-5-5-5-5-5-5-5-5-5-5--3--3-3-3-3-3-3--------------------| 
        . . . . . . . . . . . . .     . . . . . . 

e||-----------------------------------------------------------------| 
B||-----------------------------------------------------------------| 
G||-----------------------------------------------------------------| 
D||--0-----------------------------6--------------------------------| 
A||--0--0-0-0-0-0-0-0-0-0-0-0-0-0--7--7-7-7-7-7-7-7-7-7-7--3-5-3-0--| 
D||--0--0-0-0-0-0-0-0-0-0-0-0-0-0--6--6-6-6-6-6-6-6-6-6-6-----------| 
        . . . . . . . . . . . . .     . . . . . . . . . . 

e||------------------------------------------------------------------| 
B||------------------------------------------------------------------| 
G||------------------------------------------------------------------| 
D||--5---------------3---------------7---------------8---------------| 
A||--5--5-5-5-5-5-5--3--3-3-3-3-3-3--7--7-7-7-7-7-7--8--8-8-8-8-8-8--| 
D||--5--5-5-5-5-5-5--3--3-3-3-3-3-3--7--7-7-7-7-7-7--8--8-8-8-8-8-8--| 
        . . . . . .     . . . . . .     . . . . . .     . . . . . . 


Guitar 1/2:
e||------------------------------------| 
B||------------------------------------| 
G||------------------------------------| 
D||--55555555333333337777777788888888--| 
A||--55555555333333337777777788888888--| 
D||--55555555333333337777777788888888--| 



Pre-Chorus 
Guitar 1/2:
e||--------------------------------------------------------------------| 
B||--------------------------------------------------------------------| 
G||--------------------------------------------------------------------| x2 
D||------1p0---0---0----------1---1h3--------1p0---0---0----------3~---| 
A||------1p0---0---0----------1---1h3--------1p0---0---0----------3~---| 
D||-0000-1p0---0---0--------0-1---1h3---0000-1p0---0---0--------0-3~---| 
    ....                    .           ....                    . 


Chorus 
Guitar 1: 
e||--------------------------------------|------------------------------| 
B||--------------------------------------|------------------------------| 
G||--------------------------------------|------------------------------| 
D||--/7~----/6~----/5~-----/7------\4~---|------------------------------| 
A||--------------------------------------|--/5~-------------------------| 
D||--------------------------------------|---------/6~----/5~----0~--w--| 


Guitar 2: 
e||--------------------------------------|------------------------------| 
B||--------------------------------------|------------------------------| 
G||--------------------------------------|------------------------------| 
D||--------------------------------------|------------------------------| 
A||--/8~----/7~----/6~----/8--------\5~--|--/8~----/7~----/6~-----------| 
D||--------------------------------------|-----------------------0~--w--| 


Guitar 3: 
e||--------------------------------------------------------------------| 
B||--------------------------------------------------------------------| 
G||--------------------------------------------------------------------| 
D||------1p0---0---0----------1---1h3--------1p0---0---0----------3~---| 
A||------1p0---0---0----------1---1h3--------1p0---0---0----------3~---| 
D||-0000-1p0---0---0--------0-1---1h3---0000-1p0---0---0--------0-3~---| 
    ....                    .           ....                    . 

e||--------------------------------------------------------| 
B||--------------------------------------------------------| 
G||--------------------------------------------------------| 
D||------1p0---0---0----------1---1h3--------1p0---0---0---| 
A||------1p0---0---0----------1---1h3--------1p0---0---0---| 
D||-0000-1p0---0---0--------0-1---1h3---0000-1p0---0---0---| 
    ....                    .           .... 


Pre-Verse 
Guitar 1: 
e||--------------------------------|--------------------------------| 
B||--------------------------------|--------------------------------| 
G||--------------------------------|--------------------------------| 
D||--7-3---------------7~-----6~---|--5-2---------------5~---2-3~---| 
A||------5-0-------0-5------5------|------4-0-------1-4-------------| 
D||----------3-0-3-----------------|----------5-2-5-----------------| 


e||--------------------------------|--------------------------------| 
B||--------------------------------|--------------------------------| 
G||--------------------------------|--------------------------------| 
D||--7-3---------------7~-----6~---|--5-2---------------5~---2------| 
A||------5-0-------0-5------5------|------4-0-------1-4-------------| 
D||----------3-0-3-----------------|----------5-2-5-----------------| 


Guitar 2: 
e||----------------------------------|--------------------------------| 
B||----------------------------------|--------------------------------| 
G||--10-7-------------7-10~---7-9~---|--9-6-------------6-9~---6------| 
D||-------7---------7----------------|------7---------7---------------| 
A||---------8-5-0-8------------------|--------7-4-0-7-----------------| 
D||----------------------------------|--------------------------------| 



Verse 
Guitar 1: 
e||-----------------------------------------------------------------| 
B||-----------------------------------------------------------------| 
G||-----------------------------------------------------------------| 
D||--0-----------------------------6--------------------------------| 
A||--0--0-0-0-0-0-0-0-0-0-0-0-0-0--7--7-7-7-7-7-7-7-7-7-7-----------| 
D||--0--0-0-0-0-0-0-0-0-0-0-0-0-0--6--6-6-6-6-6-6-6-6-6-6--7-8-7-3--| 
        . . . . . . . . . . . . .     . . . . . . . . . . 

e||-------------------------------------------------------------------| 
B||-------------------------------------------------------------------| 
G||-------------------------------------------------------------------| 
D||--5-----------------------------3----------------------------------| 
A||--5--5-5-5-5-5-5-5-5-5-5-5-5-5--3--3-3-3-3-3-3---8-5------7-5------| 
D||--5--5-5-5-5-5-5-5-5-5-5-5-5-5--3--3-3-3-3-3-3-------7-0------7-6--| 
        . . . . . . . . . . . . .     . . . . . . 

e||-----------------------------------------------------------------| 
B||-----------------------------------------------------------------| 
G||-----------------------------------------------------------------| 
D||--0-----------------------------6--------------------------------| 
A||--0--0-0-0-0-0-0-0-0-0-0-0-0-0--7--7-7-7-7-7-7-7-7-7-7-----------| 
D||--0--0-0-0-0-0-0-0-0-0-0-0-0-0--6--6-6-6-6-6-6-6-6-6-6--7-8-7-3--| 
        . . . . . . . . . . . . .     . . . . . . . . . . 

e||------------------------------------------------------------------| 
B||------------------------------------------------------------------| 
G||------------------------------------------------------------------| 
D||--5---------------3---------------7---------------8---------------| 
A||--5--5-5-5-5-5-5--3--3-3-3-3-3-3--7--7-7-7-7-7-7--8--8-8-8-8-8-8--| 
D||--5--5-5-5-5-5-5--3--3-3-3-3-3-3--7--7-7-7-7-7-7--8--8-8-8-8-8-8--| 
        . . . . . .     . . . . . .     . . . . . .     . . . . . . 


Guitar 2: 
e||-----------------------------------------------------------------| 
B||-----------------------------------------------------------------| 
G||-----------------------------------------------------------------| 
D||--0-----------------------------6--------------------------------| 
A||--0--0-0-0-0-0-0-0-0-0-0-0-0-0--7--7-7-7-7-7-7-7-7-7-7--3-5-3-0--| 
D||--0--0-0-0-0-0-0-0-0-0-0-0-0-0--6--6-6-6-6-6-6-6-6-6-6-----------| 
        . . . . . . . . . . . . .     . . . . . . . . . . 

e||------------------------------------------------------------------| 
B||------------------------------------------------------------------| 
G||------------------------------------------------------------------| 
D||--5-----------------------------3---------------7-3------6-3------| 
A||--5--5-5-5-5-5-5-5-5-5-5-5-5-5--3--3-3-3-3-3-3------5-0------5-4--| 
D||--5--5-5-5-5-5-5-5-5-5-5-5-5-5--3--3-3-3-3-3-3--------------------| 
        . . . . . . . . . . . . .     . . . . . . 

e||-----------------------------------------------------------------| 
B||-----------------------------------------------------------------| 
G||-----------------------------------------------------------------| 
D||--0-----------------------------6--------------------------------| 
A||--0--0-0-0-0-0-0-0-0-0-0-0-0-0--7--7-7-7-7-7-7-7-7-7-7--3-5-3-0--| 
D||--0--0-0-0-0-0-0-0-0-0-0-0-0-0--6--6-6-6-6-6-6-6-6-6-6-----------| 
        . . . . . . . . . . . . .     . . . . . . . . . . 

e||------------------------------------------------------------------| 
B||------------------------------------------------------------------| 
G||------------------------------------------------------------------| 
D||--5---------------3---------------7---------------8---------------| 
A||--5--5-5-5-5-5-5--3--3-3-3-3-3-3--7--7-7-7-7-7-7--8--8-8-8-8-8-8--| 
D||--5--5-5-5-5-5-5--3--3-3-3-3-3-3--7--7-7-7-7-7-7--8--8-8-8-8-8-8--| 
        . . . . . .     . . . . . .     . . . . . .     . . . . . . 


Guitar 1/2: 
e||------------------------------------| 
B||------------------------------------| 
G||------------------------------------| 
D||--55555555333333337777777788888888--| 
A||--55555555333333337777777788888888--| 
D||--55555555333333337777777788888888--| 



Pre-Chorus 
Guitar 1/2: 
e||--------------------------------------------------------------------| 
B||--------------------------------------------------------------------| 
G||--------------------------------------------------------------------| x2 
D||------1p0---0---0----------1---1h3--------1p0---0---0----------3~---| 
A||------1p0---0---0----------1---1h3--------1p0---0---0----------3~---| 
D||-0000-1p0---0---0--------0-1---1h3---0000-1p0---0---0--------0-3~---| 
    ....                    .           ....                    . 


Chorus 
Guitar 1: 
e||--------------------------------------|------------------------------| 
B||--------------------------------------|------------------------------| 
G||--------------------------------------|------------------------------| 
D||--/7~----/6~----/5~-----/7------\4~---|------------------------------| 
A||--------------------------------------|--/5~-------------------------| 
D||--------------------------------------|---------/6~----/5~----0~--w--| 


Guitar 2: 
e||--------------------------------------|------------------------------| 
B||--------------------------------------|------------------------------| 
G||--------------------------------------|------------------------------| 
D||--------------------------------------|------------------------------| 
A||--/8~----/7~----/6~----/8--------\5~--|--/8~----/7~----/6~-----------| 
D||--------------------------------------|-----------------------0~--w--| 


Guitar 3: 
e||--------------------------------------------------------------------| 
B||--------------------------------------------------------------------| 
G||--------------------------------------------------------------------| 
D||------1p0---0---0----------1---1h3--------1p0---0---0----------3~---| 
A||------1p0---0---0----------1---1h3--------1p0---0---0----------3~---| 
D||-0000-1p0---0---0--------0-1---1h3---0000-1p0---0---0--------0-3~---| 
    ....                    .           ....                    . 

e||--------------------------------------------------------| 
B||--------------------------------------------------------| 
G||--------------------------------------------------------| 
D||------1p0---0---0----------1---1h3--------1p0---0---0---| 
A||------1p0---0---0----------1---1h3--------1p0---0---0---| 
D||-0000-1p0---0---0--------0-1---1h3---0000-1p0---0---0---| 
    ....                    .           .... 


Bridge 
Guitar 1: 
e||--17-13----------------------17------16---| 
B||--------15----------------15------15------| 
G||-----------14----------14-----------------| 
D||--------------15----15--------------------| 
A||-----------------17-----------------------| 
D||------------------------------------------| 


e||--15-12-------------------12-15---12-13---| 
B||--------14-------------14-----------------| 
G||-----------14-12----12--------------------| 
D||-----------------14-----------------------| 
A||------------------------------------------| 
D||------------------------------------------| 


e||--13-10----------------------13------12---| 
B||--------11----------------11------11------| 
G||-----------10----------10-----------------| 
D||--------------12----12--------------------| 
A||-----------------13-----------------------| 
D||------------------------------------------| 


e||--10~----10h12p10-9~-------10~----9h10-/-17~--| 
B||----------------------------------------------| 
G||----------------------------------------------| 
D||----------------------------------------------| 
A||----------------------------------------------| 
D||----------------------------------------------| 


Guitar 2: 
e||--13-10-------------------10-13---10-12---| 
B||--------10-------------10-----------------| 
G||-----------10-----------------------------| 
D||--------------12----12--------------------| 
A||-----------------12-----------------------| 
D||------------------------------------------| 


e||--12-9-----------------9-12---9--10---| 
B||-------10-----------------------------| 
G||----------12-9----9-12----------------| 
D||---------------11---------------------| 
A||--------------------------------------| 
D||--------------------------------------| 


e||--10------------------------10----------| 
B||-----11------------------11------11-9---| 
G||--------10------------10----------------| 
D||-----------12---------------------------| 
A||--------------13-8-13-------------------| 
D||----------------------------------------| 


e||---------------------------------------| 
B||--/9~---10~------/12~----10-12-/-14~---| 
G||---------------------------------------| 
D||---------------------------------------| 
A||---------------------------------------| 
D||---------------------------------------| 


Guitar 3: 
e||--------------------------------------------------------------------------------------------| 
B||--------------------------------------------------------------------------------------------| 
G||--------------------------------------------------------------------------------------------| 
D||--0000000000002222222255555555555533333333888888888888222222222222777777777777777777777777--| 
A||--0000000000002222222255555555555533333333888888888888222222222222777777777777777777777777--| 
D||--0000000000002222222255555555555533333333888888888888222222222222777777777777777777777777--| 



Solo 
Guitar 1: 
e||--------------------12/17\12--10----------------------------------10-13-10----10-13--/--17~--| 
B||---------------------------------10----------------10-11-10----10----------10----------------| 
G||-------10p9h12p9/10-----------------10----------10----------12-------------------------------| 
D||-11h12---------------------------------12----12----------------------------------------------| 
A||------------------------------------------12-------------------------------------------------| 
D||---------------------------------------------------------------------------------------------| 


e||--17-17h18-17-16~----12--14--15~--------15-17-18~---17~---15-17~---13~-----------------| 
B||--------------------------------------15--------------------------------15~--------15--| 
G||------------------------------------15---------------------------------------14-15-----| 
D||---------------------------------------------------------------------------------------| 
A||---------------------------------------------------------------------------------------| 
D||---------------------------------------------------------------------------------------| 


e||-17b18r17-13---------------------18-17-16~----12~---16~---17~------------------------| 
B||-------------15--------------------------------------------------/15~--14b15---r14~--| 
G||----------------14-14h15-14----15----------------------------------------------------| 
D||----------------------------15-------------------------------------------------------| 
A||-------------------------------------------------------------------------------------| 
D||-------------------------------------------------------------------------------------| 


e||--------------------| 
B||--(-15-14-15b17~-)--| 
G||--------------------| 
D||--------------------| 
A||--------------------| 
D||--------------------| 


e||--------------------------------------------| 
B||------------------/18-17-15-----------------| 
G||------12-------------------15----16---------| 
D||----12---15-14-12------------15----15-------| 
A||--12---------------------------------15-----| 
D||---------------------------------------15---| 


e||---------------------------------/12--14--15~----/15-17-18~---17--15--17---13-----------------| 
B||-13b15~----15--17-18---15-17~---------------------------------------------------15---------15-| 
G||-------------------------------------------------------------------------------------14-15----| 
D||----------------------------------------------------------------------------------------------| 
A||----------------------------------------------------------------------------------------------| 
D||----------------------------------------------------------------------------------------------| 


e||-17-18-17----18----17-18-17----18----17-18-17----------------------------16-12-14-16-14-12--| 
B||----------18----18----------18----18----------18-15-11-13-15-13-11-15-11--------------------| 
G||--------------------------------------------------------------------------------------------| 
D||--------------------------------------------------------------------------------------------| 
A||--------------------------------------------------------------------------------------------| 
D||--------------------------------------------------------------------------------------------| 


e||---------------------------------------------------12-----/16-17-16-----------------------| 
B||------------------------------------------------------12------------17-17-14-15-17-15-14--| 
G||-16-13-14-16-14-13--16-13--------16-13-14-16-14-13----------------------------------------| 
D||--------------------------15-14-----------------------------------------------------------| 
A||------------------------------------------------------------------------------------------| 
D||------------------------------------------------------------------------------------------| 


e||----------------------------------------------------------------------------| 
B||-17-14-15--------17-14------------------------------------------------------| 
G||----------14-14--------14----14---------------------------------------------| 
D||--------------------------14----17-14-15-17-15-14--14-11-12-14-12-11--------| 
A||---------------------------------------------------------------------13-12--| 
D||----------------------------------------------------------------------------| 


e||---------------------------1415-16b--17~---| 
B||-------------------14151617----------------| 
G||--15h18p15\14151617------------------------| 
D||-------------------------------------------| 
A||-------------------------------------------| 
D||-------------------------------------------| 


Guitar 2: 
e||---------------------------------------------------| 
B||---------------------------------------------------| 
G||---------------------------------------------------| 
D||-000000000000222222222222555555555555333333333333--| 
A||-000000000000222222222222555555555555333333333333--| 
D||-000000000000222222222222555555555555333333333333--| 
                                                         x2 

e||---------------------------------------------------| 
B||---------------------------------------------------| 
G||---------------------------------------------------| 
D||-888888888888222222222222777777777777777777777777--| 
A||-888888888888222222222222777777777777777777777777--| 
D||-888888888888222222222222777777777777777777777777--| 



Dual Bridge 
Guitar 1: 
e||--------------------------------------------------------------------| 
B||------10101010------------------------------------------------------| 
G||-7777----------10101010-7777------7777------------------------------| x2 
D||-----------------------------7777------88888888-7777-66666666-7777--| 
A||--------------------------------------------------------------------| 
D||--------------------------------------------------------------------| 


e||--------------------------------------------------------------------------------------------| 
B||------10101010------------------------------------------------------------------------------| 
G||-7777----------10101010-7777------7777------------------------------------------------------|  
D||-----------------------------7777------88888888-7777-66666666-------------------------------| 
A||--------------------------------------------------------------8888-77777777-5555-44444444---| 
D||--------------------------------------------------------------------------------------------| 


e||------------------------------| 
B||------------------------------| 
G||--------------------------6---| 
D||-8888-7777777777777777--9-----| 
A||------------------------------| 
D||------------------------------| 


e||--------------------------------------------------------------------| 
B||------10101010------------------------------------------------------| 
G||-7777----------10101010-7777------7777------------------------------| x4 
D||-----------------------------7777------88888888-7777-66666666-7777--| 
A||--------------------------------------------------------------------| 
D||--------------------------------------------------------------------| 


Guitar 2: 
e||------10101010----------------------------------------------------------------------| 
B||---------------10101010------------------------88888888-----------------------------| 
G||-7777-------------------10101010-7777-10101010----------10101010-99999999-10101010--| x2 
D||------------------------------------------------------------------------------------| 
A||------------------------------------------------------------------------------------| 
D||------------------------------------------------------------------------------------| 


e||------10101010---------------------------------------------------------------------------| 
B||---------------10101010------------------------88888888----------------------------------| 
G||-7777-------------------10101010-7777-10101010----------10101010-99999999-7777-66666666--| 
D||-----------------------------------------------------------------------------------------| 
A||-----------------------------------------------------------------------------------------| 
D||-----------------------------------------------------------------------------------------| 


e||-------------------------------------------| 
B||-------------------------------------------| 
G||---------------7777-6666666666666666--7-9--| 
D||-8888-77777777-----------------------------| 
A||-------------------------------------------| 
D||-------------------------------------------| 


e||------10101010----------------------------------------------------------------------| 
B||---------------10101010------------------------88888888-----------------------------| 
G||-7777-------------------10101010-7777-10101010----------10101010-99999999-10101010--| x4 
D||------------------------------------------------------------------------------------| 
A||------------------------------------------------------------------------------------| 
D||------------------------------------------------------------------------------------| 



Guitar 1: 
e||--------------------------------------------------------------| 
B||--------------------------------------------------------------| 
G||------6666-7777------6666-7777------6666-7777------6666-7777--| 
D||-5555-----------5555------------------------------------------| 
A||-------------------------------8888-----------8888------------| 
D||--------------------------------------------------------------| 


e||----------------------------------------------------------------------| 
B||---------------------------------------------------11111111-10101010--| 
G||------6666-7777-9999-6666-7777------6666-7777-9999--------------------| 
D||-7777--------------------------8888-----------------------------------| 
A||----------------------------------------------------------------------| 
D||----------------------------------------------------------------------| 


Guitar 2: 
e||------------------------------------------------------------------------------| 
B||------------------------------------------------------------------------------| 
G||------9999-10101010------9999-10101010------9999-10101010------9999-10101010--| 
D||-8888---------------8888---------------7777---------------7777----------------| 
A||------------------------------------------------------------------------------| 
D||------------------------------------------------------------------------------| 


e||----------------------------------------------------------------10101010-9999--| 
B||--------------------8888-----------------------------------8888----------------| 
G||-6666-9999-10101010------9999-101010101-7777-9999-10101010---------------------| 
D||-------------------------------------------------------------------------------| 
A||-------------------------------------------------------------------------------| 
D||-------------------------------------------------------------------------------| 



Piano Interlude 
Guitar 1: 
e||---------------------------|----------------------------| 
B||---------------------------|----------------------------| 
G||---------------------------|----------------------------| 
D||---0~----------0-0-0-0-----|---8~----------8--8---------| 
A||---0~----------0-0-0-0-----|---8~----------8--8---------| 
D||---0~----------0-0-0-0-----|---8~----------8--8---------| 
                  . . . .                     .  . 


Bridge 
Guitar 1: 
e||--17-17-------------17-17-------------17---------|    \ 
B||--------15-15-------------15-15----------15------|     \ 
G||--------------14-14-------------14-14-------14---| x4   \ 
D||-------------------------------------------------|       \ 
A||-------------------------------------------------|        \ 
D||-------------------------------------------------|         \ 
                                                               \ 
                                                                \ 
e||--18-18-------------18-18-------------18---------|            \ 
B||--------15-15-------------15-15----------15------|             \ 
G||--------------15-15-------------15-15-------15---| x2           \ 
D||-------------------------------------------------|               \ 
A||-------------------------------------------------|                \ 
D||-------------------------------------------------|                 \ 
                                                                       \ 
                                                                       / x2 
e||--20-20-------------20-20-------------20---------|                 / 
B||--------15-15-------------15-15----------15------|                / 
G||--------------15-15-------------15-15-------15---|               / 
D||-------------------------------------------------|              / 
A||-------------------------------------------------|             / 
D||-------------------------------------------------|            / 
                                                                / 
                                                               / 
e||--18-18-------------18-18-------------18---------|         / 
B||--------15-15-------------15-15----------15------|        / 
G||--------------15-15-------------15-15-------15---|       / 
D||-------------------------------------------------|      / 
A||-------------------------------------------------|     / 
D||-------------------------------------------------|    / 


e||---17~---| 
B||---------| 
G||---------| 
D||---------| 
A||---------| 
D||---------| 


Guitar 2: 
e||--13-13-------------13-13-------------13---------| 
B||--------10-10-------------10-10----------10------| 
G||--------------10-10-------------10-10-------10---| x4 
D||-------------------------------------------------| 
A||-------------------------------------------------| 
D||-------------------------------------------------| 


e||--15-15-------------15-15-------------15---------| 
B||--------10-10-------------10-10----------10------| 
G||--------------12-12-------------12-12-------12---| x2 
D||-------------------------------------------------| 
A||-------------------------------------------------| 
D||-------------------------------------------------| 


e||--17-17-------------17-17-------------17---------| 
B||--------10-10-------------10-10----------10------| 
G||--------------12-12-------------12-12-------12---| 
D||-------------------------------------------------| 
A||-------------------------------------------------| 
D||-------------------------------------------------| 


e||--15-15-------------15-15-------------15---------| 
B||--------10-10-------------10-10----------10------| 
G||--------------12-12-------------12-12-------12---| 
D||-------------------------------------------------| 
A||-------------------------------------------------| 
D||-------------------------------------------------| 


e||---14~---| 
B||---------| 
G||---------| 
D||---------| 
A||---------| 
D||---------| 


Guitar 3: 
e||-----------------------------------------------------------------------| 
B||-----------------------------------------------------------------------| 
G||-----------------------------------------------------------------------| 
D||---0-3-2-0----------0-3-2-0----------0-3-2-0----------0-3-2-0----------| 
A||---0-3-2-0----------0-3-2-0----------0-3-2-0----------0-3-2-0----------| 
D||---0-3-2-0--000000--0-3-2-0--000000--0-3-2-0--000000--0-3-2-0--000000--| 
               ......           ......           ......           ...... 

e||-----------------------------------------------------------------------| 
B||-----------------------------------------------------------------------| 
G||-----------------------------------------------------------------------| x2 
D||---5-8-7-5----------5-8-7-5----------5-8-7-5----------5-8-7-5----------| 
A||---5-8-7-5----------5-8-7-5----------5-8-7-5----------5-8-7-5----------| 
D||---5-8-7-5--555555--5-8-7-5--555555--5-8-7-5--555555--5-8-7-5---/12~---| 
               ......           ......           ...... 



Pre-Chorus 
Guitar 1/2: 
e||--------------------------------------------------------------------| 
B||--------------------------------------------------------------------| 
G||--------------------------------------------------------------------| x2 
D||------1p0---0---0----------1---1h3--------1p0---0---0----------3~---| 
A||------1p0---0---0----------1---1h3--------1p0---0---0----------3~---| 
D||-0000-1p0---0---0--------0-1---1h3---0000-1p0---0---0--------0-3~---| 
    ....                    .           ....                    . 


Chorus 
Guitar 1: 
e||--------------------------------------|---------------------------| 
B||--------------------------------------|---------------------------| 
G||--------------------------------------|---------------------------| 
D||--/7~----/6~----/5~-----/7------\4~---|---------------------------| 
A||--------------------------------------|--/5~----------------------| 
D||--------------------------------------|---------/6~----/5~----0~--| 


e||---------------------------------|-----------------------------| 
B||--/10~-----9~----/11~----/10~----|-----------------/8~---------| 
G||---------------------------------|--/10~----/~9-----------/7~--| 
D||---------------------------------|-----------------------------| 
A||---------------------------------|-----------------------------| 
D||---------------------------------|-----------------------------| 


Guitar 2: 
e||--------------------------------------|---------------------------| 
B||--------------------------------------|---------------------------| 
G||--------------------------------------|---------------------------| 
D||--------------------------------------|---------------------------| 
A||--/8~----/7~----/6~----/8--------\5~--|--/8~----/7~----/6~---/5~--| 
D||--------------------------------------|---------------------------| 


e||--------------------------------|-----------------------------| 
B||--------------------------------|--/10~-----9~----------------| 
G||--/10~----/~9----/8~----/11~----|-----------------/8~----/7~--| 
D||--------------------------------|-----------------------------| 
A||--------------------------------|-----------------------------| 
D||--------------------------------|-----------------------------| 


Guitar 3: 
e||--------------------------------------------------------------------| 
B||--------------------------------------------------------------------| 
G||--------------------------------------------------------------------| x2 
D||------1p0---0---0----------1---1h3--------1p0---0---0----------3~---| 
A||------1p0---0---0----------1---1h3--------1p0---0---0----------3~---| 
D||-0000-1p0---0---0--------0-1---1h3---0000-1p0---0---0--------0-3~---| 
    ....                    .           ....                    . 

e||--------------------------------|--------------------------------------------| 
B||--------------------------------|--------------------------------------------| 
G||---------------------------7~---|--------------------------------------------| 
D||---0~------6~------5~------7~---|---0~------6~------5~------0~---3-3-3--0~---| 
A||---0~------6~------5~------5~---|---0~------6~------5~------0~---3-3-3--0~---| 
D||---0~------6~------5~-----------|---0~------6~------5~------0~---3-3-3--0~---| 
                                                                    . . . 


Outro 
Guitar 1/2: 
e||--------------------------------------------------------------------| 
B||--------------------------------------------------------------------| 
G||--------------------------------------------------------------------| (Fade Out) 
D||------1p0---0---0----------1---1h3--------1p0---0---0----------3~---| 
A||------1p0---0---0----------1---1h3--------1p0---0---0----------3~---| 
D||-0000-1p0---0---0--------0-1---1h3---0000-1p0---0---0--------0-3~---| 
    ....                    .           ....                    . 

 
    	
fixar
fixar inscrever-se

enviado porenviado por: jov-correa
cifra enviadaCorrigida por: sem correções
logo top cifrasComente
ico música do artistaMúsicas deste artista
ico curtiuCurtiu?
ico destaqueDestaque
Petaxxon Comunicação Online

Cifras.com.br - Melhor e mais completo site de cifras e tablaturas do Brasil Mais de 1 milhão de acordes de músicas cadastradas desde 2003
As informações contidas no nosso site são colaborações de seus usuários e podem conter erros, sendo assim, não nos responsabilizamos sobre nenhuma destas.

close
menos
mais
close
Cor dos acordes:

Cor da letra:

close
Alinhar acordes a direita Alinhar acordes a esquerda Alinhar acordes em baixo Alinhar acordes no topo
close
  Mostrar todos os acordes Esconder acordes muito fáceis Esconder acordes fáceis Esconder acordes intermediários
redimensionar
glossário