Cifras e Tablaturas
Avenged Sevenfold

Avenged Sevenfold

Shepherd Of Fire Tablatura Verificada

Cifras Cancelar Versão de Impressão
cifras

Avenged Sevenfold - Shepherd Of Fire

fixar na tela  
Exibindo: vídeo-aula ver clipes redimensionar

Tom:

  Afinação: D A D G B e 

Intro: 
|----------------------------------------------------------------|  4x 
|----------------------------------------------------------------| 
|----------------------------------------------------------------| 
|----------------------------------------------------------------| 
|---5-8----4-7b8-----5-8---4-7b8---------------------------------| 
|-0------0--------0------0---------------------------------------| 


|----------------------------------------------------------------|  6x 
|----------------------------------------------------------------| 
|----------------------------------------------------------------| 
|------------------------------------------3-3-------------------| 
|---5-8---4-7~~---5-8---4-7~~---5-8---4-7--1-1-5-5---------------| 
|-0-----0-------0-----0-------0-----0----------5-5---------------| 


Parte A  
|----------------------------------------------------------------|  2x 
|----------------------------------------------------------------| 
|----------------------------------------------------------------| 
|---------------------------------------------------3-3----------| 
|-0----------------0----------------0---------------1-1-5-5------| 
|-0-0-0-0-0-0-0-0--0-0-0-0-0-0-0-0--0-0-0-0-0-0-0-0-----5-5------| 


Parte B 
|----------------------------------------------------------------| 
|----------------------------------------------------------------| 
|----------------------------------------------------------------| 
|----------------------------------------------------------------| 
|-7--5-8---4-7--8-8-5-5--7---5-8---4-7~--------------------------| 
|-7------0------8-8-5-5--7-------0-------------------------------| 


Refrão: D5  E5  F5  C5  //A#5  C5  D5//   A#5  G5 

   

Solo 

Parte 1 

|-15b17(17)(17)r15----------------------13-16-17-13-17-13---13-16| 
|------------------15p13----13-15----15-------------------15-----| 
|------------------------14-------14-----------------------------| 
|----------------------------------------------------------------| 
|----------------------------------------------------------------| 
|----------------------------------------------------------------| 


|-13-16-13--13-15-13-15-13-13-10-13-10------10-12-10-12-10-------| 
|---------15--------------------------11--12--------------11-----| 
|---------------------------------------10------------------10-13| 
|----------------------------------------------------------------| 
|----------------------------------------------------------------| 
|----------------------------------------------------------------| 



Parte 2 
|--------------------------------------------------15b17r15-15b17| 
|13b15r13p10-----------------------15b17r15p13-------------------| 
|------------12p10-12b13r12p10----------------14p13--------------| 
|-----------------------------12p10------------------------------| 
|----------------------------------------------------------------| 
|----------------------------------------------------------------| 


|----------------------------------------------------------------| 
|-18-18-18-18-15-15-15-15-17-17-17-17-18-18-18-18----------------| 
|-------------------------------------------------17-17-17-17----| 
|----------------------------------------------------------------| 
|----------------------------------------------------------------| 
|----------------------------------------------------------------| 


|----------------------------------------------------------------| 
|----------------------------------------------------------------| 
|-------------17-17-17-17----------------------------------------| 
|-18-18-18-18-------------15-15-15-15-17-17-17-17-18-------------| 
|----------------------------------------------------------------| 
|----------------------------------------------------------------| 

|----------------------------------------------10p15p13p10p------| 
|------------------10h13p10---------------------------------11---| 
|---------------------------10---------10h12h14------------------| 
|----------10h12h15----------------------------------------------| 
|------------------------------10h12h15--------------------------| 
|-10h12h15-------------------------------------------------------| 

|-10p13h10----10h15p10----13p15h13----13h16p13----13-------------| 
|----------13----------13----------15----------15----15-14-------| 
|----------------------------------------------------------------| 
|----------------------------------------------------------------| 
|----------------------------------------------------------------| 
|----------------------------------------------------------------| 



Parte 3 
|---------------9-10-12-12b13-12-10-13b15-13-12--13-17--12-12-9--| 
|--------9-10-12-------------------------------------------------| 
|9-10-12---------------------------------------------------------| 
|----------------------------------------------------------------| 
|----------------------------------------------------------------| 
|----------------------------------------------------------------| 

|-10-12-13--13b15-13-12-10---------------------------------------| 
|----------------------------------------------------------------| 
|----------------------------------------------------------------| 
|----------------------------------------------------------------| 
|----------------------------------------------------------------| 
|----------------------------------------------------------------| 



Parte 4 
|----------------9-10-12------------------10-12-13--10-----------| 
|--------8-10-11-----------------10-11-13--------------13--------| 
|-7-9-10-----------------9-10-12---------------------------------| 
|----------------------------------------------------------------| 
|----------------------------------------------------------------| 
|----------------------------------------------------------------| 

|-10----10-15-10-13-10----13p10----10----------------------------| 
|----13----------------15-------13----15p13p10-------------------| 
|----------------------------------------------12p10-------------| 
|----------------------------------------------------12p10h12----| 
|-------------------------------------------------------------13-| 
|----------------------------------------------------------------| 



Parte 5 
|-------10-13-12-10----10-12-----12-15-13-12----12-14-14-14-14\15| 
|----11-------------11---------13------------13------------------| 
|-10-------------------------12----------------------------------| 
|----------------------------------------------------------------| 
|----------------------------------------------------------------| 
|----------------------------------------------------------------| 


|/10\14-14/8\10---------------------------9-10-12-13-13b15-10----| 
|--------------7-8-10-10b11-------8-10-11---------------------13-| 
|--------------------------7-9-10--------------------------------| 
|----------------------------------------------------------------| 
|----------------------------------------------------------------| 
|----------------------------------------------------------------| 


|-10-13-15b17-(17)-----------------------------------------------| 
|----------------------------------------------------------------| 
|----------------------------------------------------------------| 
|----------------------------------------------------------------| 
|---------------------0------------------------------------------| 
|---------------------0------------------------------------------| 


Especial:  A5  A#5  G5  A5  A#5  G5  A5  A#5  G5  A5 



Refrão Final  A#5  C5 
|----------------------------------------------------------------| 
|--------------------------10------------------------------------| 
|-12b13-12b13-12b13-12b13--10------------------------------------| 
|-12----12----12----12----------12~~-----------------------------| 
|----------------------------------------------------------------| 
|----------------------------------------------------------------| 


|-15b17-~--------------------------------------------------------| 
|----------------------------------------------------------------| 
|--------12b13-(13)-(13)-(13)-(13)r12-12-10~--10\12~-------------| 
|----------------------------------------------------------------| 
|----------------------------------------------------------------| 
|----------------------------------------------------------------| 






  

cifra enviadacorrigido por:Teusalves
enviado porenviada por:LINEKERS
top 5 | avenged sevenfold
top heavy metal
Outras músicas do artista letras do(a) Avenged Sevenfold
Top cifras »Top artistas »
Petaxxon Comunicação Online
Cifras.com.br - Melhor e mais completo site de cifras e tablaturas do Brasil
Mais de 1 milhão de acordes de músicas cadastradas desde 2003
As informações contidas no nosso site são colaborações de seus usuários e podem conter erros, sendo assim, não nos responsabilizamos sobre nenhuma destas.
close
menos
mais
close
Cor dos acordes:

Cor da letra:

 

save
close
close
 
redimensionar