Cifras e Tablaturas
Avey Tare

Avey Tare

In Pieces

Cifras Cancelar Versão de Impressão
cifras

Avey Tare - In Pieces

fixar na tela  
Exibindo: vídeo-aula ver clipes redimensionar

Tom:

  
Verse 
e|--------------------------------------------------------| 
B|--------------------------------------------------------| 
G|-5--5--5--5--4--4--4--4--4---4--4--4--4--3--3--3--3-----| 
D|--3--3--3--3--3--3--3--3--3---2--2--2--2--2--2--2--2----| 
A|---5--5--5--5--5--5--5--5--5---3--3--3--3--3--3--3--3---| 
E|--------------------------------------------------------| 
In pieces 
We barely find the right time 
There's still love out of sight 

Verse continued 
e|----------------------------------------------------------------------------------| 
B|-------------------------8--8--8--8--7--7--7--7--6--6--6--6--10--10--10--10-------| 
G|-9--9--9--9--8--8--8--8---9--9--9--9--8--8--8--8--7--7--7--7---10--10--10--10-----| 
D|--7--7--7--7--7--7--7--7---9--9--9--9--8--8--8--8--7--7--7--7----10--10--10--10---| 
A|---8--8--8--8--8--8--8--8---------------------------------------------------------| 
E|----------------------------------------------------------------------------------| 
Thought someday we'd have a riverside 
I've seen inside a day I don't have much to come 
No stress 'cause I don't have enough 
The busy work to tie me like a rope around a hammock 
Not a ton 

Chorus 
e|---------------------------| 
B|-8--8--8--8---6--6--6--6---| 
G|--9--9--9--9---7--7--7--7--| (repeat 4x) 
D|---9--9--9--9---7--7--7--7-| 
A|---------------------------| 
E|---------------------------| 
Of pieces, oh oh oh 
In pieces, oh oh oh 
My pieces, oh oh oh 
In pieces, oh oh oh 

Verse 
e|--------------------------------------------------------| 
B|--------------------------------------------------------| 
G|-5--5--5--5--4--4--4--4--4---4--4--4--4--3--3--3--3-----| 
D|--3--3--3--3--3--3--3--3--3---2--2--2--2--2--2--2--2----| (repeat 2x) 
A|---5--5--5--5--5--5--5--5--5---3--3--3--3--3--3--3--3---| 
E|--------------------------------------------------------| 
In pieces 
A sweet blackberry pie 
Fell off from up high 
In pieces 
No bridge but it feels right 
And I'm climbing 

Verse continued 
e|----------------------------------------------------------------------------------| 
B|-------------------------8--8--8--8--7--7--7--7--6--6--6--6--10--10--10--10-------| 
G|-9--9--9--9--8--8--8--8---9--9--9--9--8--8--8--8--7--7--7--7---10--10--10--10-----| 
D|--7--7--7--7--7--7--7--7---9--9--9--9--8--8--8--8--7--7--7--7----10--10--10--10---| 
A|---8--8--8--8--8--8--8--8---------------------------------------------------------| 
E|----------------------------------------------------------------------------------| 
And for a moment let me take your hand 
I knew the plan was 
Stick together while we can 
Koala in a mother's hands is 
Gripping eucalyptus branches 
While the leaves are floating to the sun 

Chorus 
e|---------------------------| 
B|-8--8--8--8---6--6--6--6---| 
G|--9--9--9--9---7--7--7--7--| (repeat 4x) 
D|---9--9--9--9---7--7--7--7-| 
A|---------------------------| 
E|---------------------------| 
In pieces, oh oh oh 
In pieces, oh oh oh 
My pieces, oh oh oh 
In pieces, oh oh oh 
  

top 5 | avey tare
top rock'n roll
Outras músicas do artista letras do(a) Avey Tare
Top cifras »Top artistas »
Petaxxon Comunicação Online
Cifras.com.br - Melhor e mais completo site de cifras e tablaturas do Brasil
Mais de 1 milhão de acordes de músicas cadastradas desde 2003
As informações contidas no nosso site são colaborações de seus usuários e podem conter erros, sendo assim, não nos responsabilizamos sobre nenhuma destas.
close
menos
mais
close
Cor dos acordes:

Cor da letra:

 

save
close
close
 
redimensionar