Cifras e Tablaturas
Avril Lavigne

Avril Lavigne

Move Your Little Self On

Cifras Cancelar Versão de Impressão Print

Avril Lavigne - Move Your Little Self On

Tom: G

  			Flute tabbed on guitar (x2) 
e|-3--2--5-2--5-2--0--| 
B|--------------------| 
G|--------------------| 
D|--------------------| 
A|--------------------| 
E|--------------------| 
 
Guitar 2: (x2) 
e|---------------------| 
B|---------------------| 
G|---0---0-----------0-| 
D|-2---2------0----4---| 
A|----------0----5-----| 
E|---------------------| 
 
 

    	
fixar
fixar inscrever-se

enviado porenviado por: eduardo_lyvio
cifra enviadaCorrigida por: sem correções
logo top cifrasComente
ico música do artistaMúsicas deste artista
ico curtiuCurtiu?
ico destaqueDestaque
Petaxxon Comunicação Online

Cifras.com.br - Melhor e mais completo site de cifras e tablaturas do Brasil Mais de 1 milhão de acordes de músicas cadastradas desde 2003
As informações contidas no nosso site são colaborações de seus usuários e podem conter erros, sendo assim, não nos responsabilizamos sobre nenhuma destas.

close
menos
mais
close
Cor dos acordes:

Cor da letra:

close
Alinhar acordes a direita Alinhar acordes a esquerda Alinhar acordes em baixo Alinhar acordes no topo
close
  Mostrar todos os acordes Esconder acordes muito fáceis Esconder acordes fáceis Esconder acordes intermediários
redimensionar
glossário