Cifras e Tablaturas
Avril Lavigne

Avril Lavigne

Nobody's Home (Intro)

Cifras Cancelar Versão de Impressão Print

Avril Lavigne - Nobody's Home (Intro)

Tom:

  			this is the 1st time I submit something here... 
I hope every1 likes it 
since im not to good with the english I apology 4 my bad english 
 
 
e||----------1---------1----------------------------------------------------------|  
B||------1---------4-------------1---------1-2------------------------------------|   
G||----5---5-----3---3-------1---------1------------------------------------------|  
D||--3---------1-----------3---3-----3---3----------------------------------------| 
A||----------------------4---------4----------------------------------------------|  
E||-------------------------------------------------------------------------------|  
 
 
its easier to play this way: 
 
 
f ||----------0---------0----------------------------------------------------------|  
C ||------0---------3-------------0---------0-1------------------------------------|   
G#||----4---4-----2---2-------0---------0------------------------------------------|  
D#||--2---------0-----------2---2-----2---2----------------------------------------| 
A#||----------------------3---------3----------------------------------------------|  
F ||-------------------------------------------------------------------------------|  
 
 

    	
fixar
fixar inscrever-se

enviado porenviado por: Peluza
cifra enviadaCorrigida por: sem correções
logo top cifrasComente
ico música do artistaMúsicas deste artista
ico curtiuCurtiu?
ico destaqueDestaque
Petaxxon Comunicação Online

Cifras.com.br - Melhor e mais completo site de cifras e tablaturas do Brasil Mais de 1 milhão de acordes de músicas cadastradas desde 2003
As informações contidas no nosso site são colaborações de seus usuários e podem conter erros, sendo assim, não nos responsabilizamos sobre nenhuma destas.

close
menos
mais
close
Cor dos acordes:

Cor da letra:

close
Alinhar acordes a direita Alinhar acordes a esquerda Alinhar acordes em baixo Alinhar acordes no topo
close
  Mostrar todos os acordes Esconder acordes muito fáceis Esconder acordes fáceis Esconder acordes intermediários
redimensionar
glossário