Cifras e Tablaturas
Avril Lavigne

Avril Lavigne

Sk8er Boy (ver. 3)

Compositor : (Avril Lavigne / Lauren Christy / Scott Alspach / Gram Edward)

Cifras Cancelar Versão de Impressão Print

Avril Lavigne - Sk8er Boy (ver. 3)

Tom: D

  			converte nomenclatura | -1 tom | -1/2 tom | +1/2 tom | +1 tom 
INTRO: 
 
    (D) x8  (A) x8  (Bm)x8  (Bb)x4  (A) x4       
E|----------------------------------------- 
B|----------------------------------------- 
G|----7------------------------------------ 
D|----7-------7-------9-------8-------7---- 
A|----5-------7-------9-------8-------7---- 
E|------------5-------7-------6-------5---- 
 
  
Lead Guitar:                                      
E|------------------------------------------------------ 
B|------------------------------------------------------ 
G|------9-/-11-9---9-/-11-9---9-/-11-9---9-/-11-9--7---- 
D|------------------------------------------------------ 
A|------------------------------------------------------ 
E|------------------------------------------------------ 
  
VERSE: 
    (D) x2       (A) x2        (Bm) x2       (Bb) x4   
E|--------------|-------------|-------------|-------------|-- 
B|----------(5)-|-------------|-------------|-------------|-- 
G|-----------7--|---------(6)-|---------(7)-|---------(7)-|-- 
D|----7------7--|----------7--|----------9--|----------8--|-- 
A|----5---5-----|--7-------7--|--9-------9--|--8-------8--|-- 
E|---(5)--------|--5---5------|--7---7------|--6---6------|-- 
  
    (D) x2       (A) x2        (Bm) x2      (C) x4 
E|--------------|-------------|-------------|-------------|-- 
B|----------(5)-|-------------|-------------|-------------|-- 
G|-----------7--|---------(6)-|---------(7)-|---------(9)-|-- 
D|----7------7--|----------7--|----------9--|---------10--|-- 
A|----5---5-----|--7-------7--|--9-------9--|-10------10--|-- 
E|---(5)--------|--5---5------|--7---7------|--8---8------|-- 
 
Note:  All down strokes; notes in between (#) aren?t played, they are just to  
 
Suggest where to place your fingers in case you?d hit that string by mistake.  
 
  
 
VERSE TYPE 2 (when Even wants to mix things up): 
 
    (D) x2       (A) x2        (Bm) x2       (Bb) x4   
 
E|--------------|-------------|-------------|-------------|-- 
B|----------(5)-|-------------|-------------|-------------|-- 
G|-----------7--|----------7--|----------7--|---------(7)-|-- 
D|----7------7--|--7-------7--|--7-------7--|----------8--|-- 
A|----5---5-----|--7---7---7--|--5---5---5--|--8-------8--|-- 
E|--------------|--5---5------|--7---7------|--6---6------|-- 
  
    (D) x2       (A) x2        (Bm) x2       (C) x4   
E|--------------|-------------|-------------|-------------|-- 
B|----------(5)-|-------------|-------------|-------------|-- 
G|-----------7--|----------7--|----------7--|---------(9)-|-- 
D|----7------7--|--7-------7--|--7-------7--|---------10--|-- 
A|----5---5-----|--7---7---7--|--5---5---5--|-10------10--|-- 
E|--------------|--5---5------|--7---7------|--8---8------|-- 
  
Lead Guitar (Filler 1):                                      
E|------------------------- 
B|------------------------- 
G|------------------------- 
D|------0---2---4---2------ 
A|------------------------- 
E|------------------------- 
  
D            A              Bm  
  He was a boy, she was a girl 
                 Bb  
  Can I make it anymore obvious? 
D           A              Bm  
  He was a punk, she did ballet 
        C  
  What more can I say? 
  
  He wanted her, but she?d never tell 
  Secretly she wanted him as well 
  But all of her friends stuck up their nose 
  They had a problem with his baggy clothes 
  
Chorus: 
  
    (F) x8  (C) x8  (Bb)x8  (A) x6  (E) x2        
E|------------------------------------------| 
B|------------------------------------------| 
G|---10-------------------------------9-----| 
D|---10------10-------8-------7-------9-----| 
A|----8------10-------8-------7-------7-----| 
E|------------8-------6-------5-------------| 
Note: the last E is to simulate the upper A ?wah? and can be left out. 
 
    (F) x8  (C) x8  (Bb)x8  (A) x8  (Bb) x8        
E|------------------------------------------| 
B|------------------------------------------| 
G|---10-------------------------------------| 
D|---10------10-------8-------7-------8-----| 
A|----8------10-------8-------7-------8-----| 
E|------------8-------6-------5-------6-----| 
  
F                 C 
  He was a sk8ter boy 
                        Bb 
  She said see ya later boy 
             A          E   F 
  He wasn?t good enough for her 
                    C 
  She had a pretty face 
                           Bb 
  But her head was up in space 
                A                 Bb 
  She needed to come back down to earth 
  
  
VERSE (After 1st Chorus): 
   (D)           (A)           (Bm)          (Bb)     
E|---------5----|--------------|--------------|-------------------------|-- 
B|------7----7--|--------5-----|--------7-----|-------------------------|-- 
G|---7----------|-----6-----6--|-----7-----7--|--7--7--7--7--7--7--7--7-|-- 
D|--------------|--7-----------|--9-----------|-------------------------|-- 
A|--------------|--------------|--------------|-------------------------|-- 
E|--------------|--------------|--------------|-------------------------|-- 
 
  
   (D)           (A)           (Bm)           (C) 1st Time    (C) 2nd Time 
E|---------5----|--------------|--------------|---8-----8----|--------------------| 
B|------7----7--|--------5-----|--------7-----|---8-----8----|---8----------------| 
G|---7----------|-----6-----6--|-----7-----7--|---9-----9----|-----9--------------| 
D|--------------|--7-----------|--9-----------|--10----10----|-------10-----------| 
A|--------------|--------------|--------------|----------------|----------10--7-----| 
E|--------------|--------------|--------------|----------------|-----------------8--| 
Note: ?? à slide chord down slightly 
 
  
 
BRIDGE: 
 
  
 
    (F) x8  (C) x8  (Bb)x8  (Db)x4Staccato   (F)    (C)     (Bb)x8  (Db)x2  (A)  
 
E|----------------------------------------|----------------------------------------| 
B|----------------------------------------|----------------------------------------| 
G|------------5-------3-------6-----------|----------5-------3-------6-------------| 
D|----3-------5-------3-------6-----------|---3------5-------3-------6-------7-----| 
A|----3-------3-------1-------4-----------|---3------3-------1-------4-------4-----| 
E|----1-------3-------1-------4-----------|---1------3-------1-------4-------5-----| 
  
 
   (Dm)                       (F)                        (C) 
 
E|---------------5-----------|--------------5-----------|--------------------------|-- 
B|------6--5--6-----6--5--6--|-----6--5--6-----6--5--6--|-----6--5--6--8--6--5--8--|-- 
G|---7-----------------------|--5-----------------------|--5-----------------------|-- 
D|---------------------------|--------------------------|--------------------------|-- 
A|---------------------------|--------------------------|--------------------------|-- 
E|---------------------------|--------------------------|--------------------------|-- 
 
           
Five years from now, 
She sits at a home, 
Feeding the baby, she's all alone 
She turns on TV 
Guess who she sees? 
Sk8er boi rockin'up MTv 
 
She calls up her friends,They already know 
And they've all got Tickets to see his show 
She tags along, Stands in the crowd 
Looks up at the man that she turned down. 
 
 
He was a skater boy 
She said see you later boy,He wasn't good enough for her 
Now he's a super star , Slamming on his guitar 
Does your pretty face see what he's worth? (2x) 
 
F-C-Bb-Db 
F-C-Bb-Db-A 
 
Dm                         F                                    C 
Sorry girl but you missed out, Well tough luck that boy's mine now 
                            Bb             A              Dm    
We are more than just good friends,This is how the story ends 
                          F                               C 
Too bad that you couldn't see, See the man that boy could be 
                              Bb           A 
There is more than meets the eye,I see the soul that is inside. 
 
He's just a boy, And I'm just a girl 
Can I make it any more obvious, 
We are in love, Haven't you heard? 
How we rock each others world!!!!!!!!!!!!! 
 
(2X)     F            C                          Bb 
	I'm with the skater boy, I said see you later boy  
                      A                    F               C 
	I'll be back stage after the show,I'll be at the studio 
                     Bb                    A                Bb 
	Singing the song we wrote, About a girl you used to know. 
 
 
     
 
   (Bb)        (A)            
E|---------------------------|-- 
B|------6--5--6-----6--5-----|-- 
G|------------------------6--|-- 
D|---8-----------7-----------|-- 
A|---------------------------|-- 
E|---------------------------|-- 
 
   frie- This is how the-.. 
    	
fixar
fixar inscrever-se

enviado porenviado por: RaY*
cifra enviadaCorrigida por: sem correções
logo top cifrasComente
ico música do artistaMúsicas deste artista
ico curtiuCurtiu?
ico destaqueDestaque
Petaxxon Comunicação Online

Cifras.com.br - Melhor e mais completo site de cifras e tablaturas do Brasil Mais de 1 milhão de acordes de músicas cadastradas desde 2003
As informações contidas no nosso site são colaborações de seus usuários e podem conter erros, sendo assim, não nos responsabilizamos sobre nenhuma destas.

close
menos
mais
close
Cor dos acordes:

Cor da letra:

close
Alinhar acordes a direita Alinhar acordes a esquerda Alinhar acordes em baixo Alinhar acordes no topo
close
  Mostrar todos os acordes Esconder acordes muito fáceis Esconder acordes fáceis Esconder acordes intermediários
redimensionar
glossário