Cifras e Tablaturas
Awolnation

Awolnation

Woman Woman

Cifras Cancelar Versão de Impressão
cifras

Awolnation - Woman Woman

fixar na tela  
Exibindo: vídeo-aula ver clipes redimensionar
  
e|-------16-18-----------16-18-----------16-18-----------16-14---------------| 
B|-14-16-----------14-16-----------14-16--------------14---------------------| DO THIS 
G|--------------------------------------------------15-----------------------| THREE TIMES 
D|---------------------------------------------------------------------------| THEN DO LAST 
A|---------------------------------------------------------------------------| INTRO PART BELOW 
D|---------------------------------------------------------------------------| 

---OR--- You can make it easier by playing this: (Or you have an acoustic and can't play those notes) 

e|-----4-6---------4-6---------4-6---------4-2-------------------------------| 
B|-2-4---------2-4---------2-4-----------2-----------------------------------| DO THIS 
G|-------------------------------------3-------------------------------------| THREE TIMES 
D|---------------------------------------------------------------------------| THEN DO LAST 
A|---------------------------------------------------------------------------| INTRO PART BELOW 
D|---------------------------------------------------------------------------| 

                                        ///LAST INTRO PART/// 

Now once you get near the Chorus, you want to play this one note after the intro 
Don't matter which one you pick; just make sure to play this one note, it makes playing the Chorus easier. 

e|-------16-18-----------16-18-----------16-18-----------16-14---------------| 
B|-14-16-----------14-16-----------14-16--------------14---------------8-----| DO THIS 
G|--------------------------------------------------15-----------------------| LAST INTRO PART 
D|---------------------------------------------------------------------------| BEFORE Chorus 
A|---------------------------------------------------------------------------| 
D|---------------------------------------------------------------------------| 

---The Other Way--- 

e|-----4-6---------4-6---------4-6---------4-2-------------------------------| 
B|-2-4---------2-4---------2-4-----------2-------------------8---------------| DO THIS 
G|-------------------------------------3-------------------------------------| LAST INTRO PART 
D|---------------------------------------------------------------------------| BEFORE Chorus 
A|---------------------------------------------------------------------------| 
D|---------------------------------------------------------------------------| 



                                          ///Chorus/// 

       ---I'm too lazy to write it a bunch of times, so I'm gonna make it simple--- 
    !!!ALSO, Make sure to slide you finger to the next chord, it makes it sound cooler!!! 

   8x = Strum it 8 times            16x = Strum it 16 times             Number(x) = You get the point 

   8x        8x         8x        8x        8x        8x        16x 
e|-x---------x----------x---------x---------x---------x----------x-----------| 
B|-x---------x----------x---------x---------x---------x----------x-----------| 
G|-x---------x----------x---------x---------x---------x----------x-----------| DO THIS 
D|-9---------11---------8---------9---------6---------11---------4-----------|  TWICE 
A|-9---------11---------8---------9---------6---------11---------4-----------| 
D|-9---------11---------8---------9---------6---------11---------4-----------| 



                                    ///DO INTRO PART ONCE/// 

                               ///DO THE LAST INTRO PART AGAIN/// 

                                     ///THEN DO Chorus/// 

                                        ///SINGING/// 



                                     ///BREAKDOWN PART/// 

                                    ---You get the jist--- 

  2x = Strum it 8 times            4x = Strum it 16 times              No "Number(x)" = Once 

   2x        4x         2x        4x        2x        4x         4x 
e|-x---------x----------x---------x---------x---------x----------x-------x---| 
B|-x---------x----------x---------x---------x---------x----------x-------x---| 
G|-x---------x----------x---------x---------x---------x----------x-------x---| DO THIS 
D|-4---------9----------4---------9---------4---------9----------11------4---| THREE TIMES 
A|-4---------9----------4---------9---------4---------9----------11------4---| 
D|-4---------9----------4---------9---------4---------9----------11------4---| 
 
  

top 5 | awolnation
top rock alternativo
Outras músicas do artista letras do(a) Awolnation
1.
Sail
Top cifras »Top artistas »
Petaxxon Comunicação Online
Cifras.com.br - Melhor e mais completo site de cifras e tablaturas do Brasil
Mais de 1 milhão de acordes de músicas cadastradas desde 2003
As informações contidas no nosso site são colaborações de seus usuários e podem conter erros, sendo assim, não nos responsabilizamos sobre nenhuma destas.
close
menos
mais
close
Cor dos acordes:

Cor da letra:

 

save
close
close
 
redimensionar