Cifras e Tablaturas
Böhse Onkelz

Böhse Onkelz

Der Junge Mit Dem Schwefelholz

Cifras Cancelar Versão de Impressão
cifras

Böhse Onkelz - Der Junge Mit Dem Schwefelholz

fixar na tela  
Exibindo: vídeo-aula ver clipes redimensionar

Tom:

  
Intro 
Guitar I:  (7x) 
e|---------------------------------------------------------------------------| 
B|---6----5---------------------6----5---------------------------------------| 
G|---7----5----5-5----4-4-------7----5----5-5----4---------------------------| 
D|---7--0------7-7----5-5-------7--0------7-7----5---------------------------| 
A|-5---------5------5---------5---------5------5-----------------------------| 
E|---------------------------------------------------------------------------| 

Guitar II: 
e|-----------------------10--------------------------------------------------| 
B|------------------8b10------6----------------------------------------------| 
G|-----7---9b10-7---------------7--------------------------------------------| 
D|-5b7-----------------------------------------------------------------------| 
A|---------------------------------------------------------------------------| 
E|---------------------------------------------------------------------------| 

Verse  (4x) 
e|---------------------------------------------------------------------------| 
B|---6----5---------------------6----5---------------------------------------| 
G|---7----5----5-5----4-4-------7----5----5-5----4---------------------------| 
D|---7--0------7-7----5-5-------7--0------7-7----5---------------------------| 
A|-5---------5------5---------5---------5------5-----------------------------| 
E|---------------------------------------------------------------------------| 

  (4x) 
e|-----0----------------------------------------------------------------------| 
B|-------1---1----------------------------------------------------------------| 
G|---------2---2---3-3-3-3----------------------------------------------------| 
D|-0-0-------------3-3-3-3---5-5-5--------------------------------------------| 
A|-----------------1-1-1-1---5-5-5--------------------------------------------| 
E|-------------------------0-3-3-3-0-1-0--------------------------------------| 

Chorus (4x) 
e|---------------------------------------------------------------------------| 
B|---------------------------------------------------------------------------| 
G|---7----5------------------------------------------------------------------| 
D|---7----5----7-7--3-3------------------------------------------------------| 
A|-5----5----5-7-7--3-3------------------------------------------------------| 
E|------------------1-1------------------------------------------------------| 

e|---------------------------------------------------------------------------| 
B|---------------------------------------------------------------------------| 
G|-3--7--3--7--3-----7--5--3-------------------------------------------------| 
D|-3--7--3--7--3--5--7--5--3--5----------------------------------------------| 
A|-1--5--1--5--1--5--5--3--1--5----------------------------------------------| 
E|----------------3-----------3----------------------------------------------| 

e|---------------------------------------------------------------------------| 
B|---------------------------------------------------------------------------| 
G|---------------------------------------------------------------------------| 
D|-----3---------3---------3-------------------------------------------------| 
A|-3-5---5---3-5---5---3-5---5-3-------------5-------------------------------| 
E|-------------------------------5-6-5-3-1-3---------------------------------| 



************************************ 

| b   Bend 

************************************ 
  

top 5 | böhse onkelz
top rock grunge
Outras músicas do artista letras do(a) Böhse Onkelz
Top cifras »Top artistas »
Petaxxon Comunicação Online
Cifras.com.br - Melhor e mais completo site de cifras e tablaturas do Brasil
Mais de 1 milhão de acordes de músicas cadastradas desde 2003
As informações contidas no nosso site são colaborações de seus usuários e podem conter erros, sendo assim, não nos responsabilizamos sobre nenhuma destas.
close
menos
mais
close
Cor dos acordes:

Cor da letra:

 

save
close
close
 
redimensionar