Cifras e Tablaturas
Böhse Onkelz

Böhse Onkelz

Ich Weiß Wo Du Wohnst

Cifras Cancelar Versão de Impressão
cifras

Böhse Onkelz - Ich Weiß Wo Du Wohnst

fixar na tela  
Exibindo: vídeo-aula ver clipes redimensionar

Tom:

  
Intro 

e|-----------------------------------------| 
B|-----------------------------------------| 
G|-----10-10-8-8-7-7-8-8-7-7---------------| 
D|-8-8-----------------------10-10-8-8-----| 
A|-----------------------------------------| 
E|-----------------------------------------| 

e|-----------------------------------------| 
B|-----------------------------------------| 
G|-----10-10-8-8-7-7-8-8-7-7---------------| 
D|-7-7-----------------------10-10-8-8-----| 
A|-----------------------------------------| 
E|-----------------------------------------| 

e|----------------------------------------------------------| 
B|----------------------------------------------------------| 
G|-------10-10-8-8-7-7-8-8-7-7-------------------7----7-----| 
D|-----------------------------10-10-8-8----8-10---10---10--| 
A|-10-10----------------------------------------------------| 
E|----------------------------------------------------------| 

Verse 

e|--------------------------------------------------------------------------------------| 
B|--------------------------------------------------------------------------------------| 
G|--------------------------------------------------------------------------------------| 
D|-8-8-8-8-8-8-8-8-8-8--7-7-7-7-7-7-7-7-7-7-5-5-5-5-5-5-5-5-5-5-3-3-3-3-3-----3-----3---| 
A|-8-8-8-8-8-8-8-8-8-8--7-7-7-7-7-7-7-7-7-7-5-5-5-5-5-5-5-5-5-5-3-3-3-3-3-----3-----3---|  (2x) 
E|-6-6-6-6-6-6-6-6-6-6--5-5-5-5-5-5-5-5-5-5-3-3-3-3-3-3-3-3-3-3-1-1-1-1-1-0h1-1-0h1-1---| 


Chorus 

 Guitar I: 

e|-----------------------------------------| 
B|-----------------------------------------| 
G|-----10-10-8-8-7-7-8-8-7-7---------------| 
D|-8-8-----------------------10-10-8-8-----| 
A|-----------------------------------------|  (6x) 
E|-----------------------------------------| 

 Guitar II: 
e|---------------------------------------------------------------------------------------------------------| 
B|---------------------------------------------------------------------------------------------------------| 
G|-8-8-8-8-8-8-8-8-8-8-10-10-10-10-10-10-10-10-10-10-------------------------------------------------------| 
D|-8-8-8-8-8-8-8-8-8-8-10-10-10-10-10-10-10-10-10-10-8-8-8-8-8---7-7-7-7-7---5-5-5-5-5---3-3-3-3-3---------| 
A|-6-6-6-6-6-6-6-6-6-6-8--8--8--8--8--8--8--8--8--8--8-8-8-8-8---7-7-7-7-7---5-5-5-5-5---3-3-3-3-3---------| 
E|---------------------------------------------------6-6-6-6-6-0-5-5-5-5-5-0-3-3-3-3-3-0-1-1-1-1-1---------| 

e|---------------------------------------------------------------------------------------------------------| 
B|---------------------------------------------------------------------------------------------------------| 
G|-8-8-8-8-8-8-8-8-8-8-10-10-10-10-10-10-10-10-10-10-------------------------------------------------------| 
D|-8-8-8-8-8-8-8-8-8-8-10-10-10-10-10-10-10-10-10-10--8-8-8-8-8-7-8-8----------8-8-8-8-8-7-8-8-------------| 
A|-6-6-6-6-6-6-6-6-6-6-8--8--8--8--8--8--8--8--8--8---8-8-8-8-8-7-8-8----------8-8-8-8-8-7-8-8-------------| 
E|----------------------------------------------------6-6-6-6-6-5-6-6-x-x-x-x--6-6-6-6-6-5-6-6-x-x-x-x-----| 

Guitar Solo 

e|-10-----10------8-----8--6---6----5---5------------------------------------| 
B|---11-----11-----10-------8---8----6---------------------------------------| 
G|-----10-----10-----10------7---7----5--------------------------------------| 
D|---------------------------------------------------------------------------| 
A|---------------------------------------------------------------------------| 
E|---------------------------------------------------------------------------| 

If you also want to play the Bass Solo here it is 

e|---------------------------------------------------------------------------| 
B|---------------------------------------------------------------------------| 
G|---------------------------------------------------------------------------| 
D|---------------------------------------------------------------------------| 
A|-----------6-7-6--------------6-7-6-------------6-7-6--------------6-7-6---| 
E|-6-6-6-9p6-------9--6-6-6-9p6---------6-6-6-9p6-------9--6-6-6-9p6---------| 


************************************ 

| x   Dead note 
| h   Hammer-on 
| p   Pull-off 

************************************ 
  

top 5 | böhse onkelz
top rock grunge
Outras músicas do artista letras do(a) Böhse Onkelz
Top cifras »Top artistas »
Petaxxon Comunicação Online
Cifras.com.br - Melhor e mais completo site de cifras e tablaturas do Brasil
Mais de 1 milhão de acordes de músicas cadastradas desde 2003
As informações contidas no nosso site são colaborações de seus usuários e podem conter erros, sendo assim, não nos responsabilizamos sobre nenhuma destas.
close
menos
mais
close
Cor dos acordes:

Cor da letra:

 

save
close
close
 
redimensionar