Cifras e Tablaturas
Böhse Onkelz

Böhse Onkelz

Wir Bleiben

Cifras Cancelar Versão de Impressão
cifras

Böhse Onkelz - Wir Bleiben

fixar na tela  
Exibindo: vídeo-aula ver clipes redimensionar
  

Intro 1 (4 times) 
e|---------------------------------| 
B|---------------------------------| 
G|---------------------------------| 
D|--8/10-10-10--|-8/10-10-10--|-1--| 
A|--8/10-10-10--|-8/10-10-10--|-1--| 
D|--8/10-10-10--|-8/10 10-10--|-1--| 

Intro 2 (4 times) 
e|---------------------------------------------------------------------------------------| 
B|---------------------------------------------------------------------------------------| 
G|---------------------------------------------------------------------------------------| 
D|---------------------------------------------------------------------------------------| 
A|--1/3-3-3------------------------------------------------------------------------------| 
D|----------1-1-1-1--3-3-3-3--1-1-1-1----------------------------------------------------| 

verse 1 (same as Intro 2 just muted; 8 times) 
e|---------------------------------------------------------------------------------------| 
B|---------------------------------------------------------------------------------------| 
G|---------------------------------------------------------------------------------------| 
D|---------------------------------------------------------------------------------------| 
A|--1/3-3-3------------------------------------------------------------------------------| 
D|----------1-1-1-1--3-3-3-3--1-1-1-1----------------------------------------------------| 

PreChorus (2 times) 
e|----------------------------------------------------------------------------------| 
B|----------------------------------------------------------------------------------| 
G|----------------------------------------------------------------------------------| 
D|--5--5--5/2-----------------------------------------------------------------------| 
A|--5--5--5/2-----------------------------------------------------------------------| 
D|--5--5--5/2-----------------------------------------------------------------------| 

Chorus (2 times) 
e|----------------------------------------------------------------------------------| 
B|----------------------------------------------------------------------------------| 
G|----------------------------------------------------------------------------------| 
D|--10---6--1-----------------------------------------------------------------------| 
A|--10---6--1-----------------------------------------------------------------------| 
D|--10---6--1-----------------------------------------------------------------------| 

Intro 2 (same as Intro 2 at beginning): 4 times 
e|---------------------------------------------------------------------------------------| 
B|---------------------------------------------------------------------------------------| 
G|---------------------------------------------------------------------------------------| 
D|---------------------------------------------------------------------------------------| 
A|--1/3-3-3------------------------------------------------------------------------------| 
D|----------1-1-1-1--3-3-3-3--1-1-1-1----------------------------------------------------| 

verse 2 (same as verse 1): 8 times muted 
e|---------------------------------------------------------------------------------------| 
B|---------------------------------------------------------------------------------------| 
G|---------------------------------------------------------------------------------------| 
D|---------------------------------------------------------------------------------------| 
A|--1/3-3-3------------------------------------------------------------------------------| 
D|----------1-1-1-1--3-3-3-3--1-1-1-1----------------------------------------------------| 

PreChorus (same as first PreChorus): 2 times 
e|----------------------------------------------------------------------------------| 
B|----------------------------------------------------------------------------------| 
G|----------------------------------------------------------------------------------| 
D|--5--5--5/2-----------------------------------------------------------------------| 
A|--5--5--5/2-----------------------------------------------------------------------| 
D|--5--5--5/2-----------------------------------------------------------------------| 

Chorus (same as first Chorus): 2 times 
e|----------------------------------------------------------------------------------| 
B|----------------------------------------------------------------------------------| 
G|----------------------------------------------------------------------------------| 
D|--10---6--1-----------------------------------------------------------------------| 
A|--10---6--1-----------------------------------------------------------------------| 
D|--10---6--1-----------------------------------------------------------------------| 

Intro 2 (same as Intro 2 at beginning): 4 times 
e|---------------------------------------------------------------------------------------| 
B|---------------------------------------------------------------------------------------| 
G|---------------------------------------------------------------------------------------| 
D|---------------------------------------------------------------------------------------| 
A|--1/3-3-3------------------------------------------------------------------------------| 
D|----------1-1-1-1--3-3-3-3--1-1-1-1----------------------------------------------------| 

Chorus (same as the first Chorus): 4 (!) times 
e|----------------------------------------------------------------------------------| 
B|----------------------------------------------------------------------------------| 
G|----------------------------------------------------------------------------------| 
D|--10---6--1-----------------------------------------------------------------------| 
A|--10---6--1-----------------------------------------------------------------------| 
D|--10---6--1-----------------------------------------------------------------------| 

End: (4 times) 
e|-------------------------------------------------------------------------------------| 
B|-------------------------------------------------------------------------------------| 
G|-------------------------------------------------------------------------------------| 
D|--8/10----1/3--3/1-------------------------------------------------------------------| 
A|--8/10----1/3--3/1-------------------------------------------------------------------| 
D|--8/10----1/3--3/1-------------------------------------------------------------------| 
 
  

top 5 | böhse onkelz
top rock grunge
Outras músicas do artista letras do(a) Böhse Onkelz
Top cifras »Top artistas »
Petaxxon Comunicação Online
Cifras.com.br - Melhor e mais completo site de cifras e tablaturas do Brasil
Mais de 1 milhão de acordes de músicas cadastradas desde 2003
As informações contidas no nosso site são colaborações de seus usuários e podem conter erros, sendo assim, não nos responsabilizamos sobre nenhuma destas.
close
menos
mais
close
Cor dos acordes:

Cor da letra:

 

save
close
close
 
redimensionar