Cifras e Tablaturas
Böhse Onkelz

Böhse Onkelz

Wir Sind Immer Für Euch Da

Cifras Cancelar Versão de Impressão
cifras

Böhse Onkelz - Wir Sind Immer Für Euch Da

fixar na tela  
Exibindo: vídeo-aula ver clipes redimensionar

Tom:

  
Intro 
  (16x) 
e|---------------------------------------------------------------------------| 
B|---------------------------------------------------------------------------| 
G|--------0-h5h7--------0-h5h7-----------------------------------------------| 
D|-0-h5h7--------0-h5h7------------------------------------------------------| 
A|---------------------------------------------------------------------------| 
E|---------------------------------------------------------------------------| 

e|------------------------------------------------------------------------------| 
B|------------------------------------------------------------------------------| 
G|-9--12-11-7----------------------------7-9--12-11-7---------------------------| 
D|-9--12-11-7----------------------------7-9--12-11-7---------------------------| 
A|-7--10-9--5----------------------------5-7--10-9--5---------------------------| 
E|-------------3-0-0-3-0-0-3-0-0-3-0-0-3--------------3-0-0-3-0-0-3-0-0-3-0-0-3-| 

Verse 
  "Hier kommt die Kirche..." 
  (2x) 
e|---------------------------------------------------------------------------| 
B|-7-8-7-8-7--7-8-7-8-7------------------------------------------------------| 
G|-7-7-7-7-7--7-7-7-7-7------------------------------------------------------| 
D|-7-7-7-7-7--7-7-7-7-7---5-5--5-5-------------------------------------------| 
A|-5-5-5-5-5--5-5-5-5-5---5-5--5-5-------------------------------------------| 
E|------------------------3-3--3-3-------------------------------------------| 

  "Ich bin die Lüge..." 
e|---------------------------------------------------------------------------| 
B|---------------------------------------------------------------------------| 
G|-2-2-----2-----2-2-----2-2-4-5-5-----5-----5-5-----5-5---------------------| 
D|-2-2-----2-----2-2-----2-2-4-5-5-----5-----5-5-----5-5---------------------| 
A|-0-0-x-x-0-x-x-0-0-x-x-0-0-2-3-3-x-x-3-x-x-3-3-x-x-3-3---------------------| 
E|---------------------------------------------------------------------------| 

Chorus 
e|-----------------------3-3------3-3------------------------3-3---10----10------------| 
B|-----7-7------2-2------3-3------3-3------7-7------2-2------3-3---10b12----10br-8-----| 
G|-----7-7------2-2--3h4------3h4----------7-7------2-2--3h4---------------------------| 
D|-----7-7------2-2------------------------7-7------2-2--------------------------------| 
A|-7h9------0-4------------------------7h9------0-4------------------------------------| 
E|-------------------------------------------------------------------------------------| 

e|-----------------------3-3------3-3------------------------3-3------3-3--------------| 
B|-----7-7------2-2------3-3------3-3------7-7------2-2------3-3------3-3--------------| 
G|-----7-7------2-2--3h4------3h4----------7-7------2-2--3h4------3h4------------------| 
D|-----7-7------2-2------------------------7-7------2-2--------------------------------| 
A|-7h9------0-4------------------------7h9------0-4------------------------------------| 
E|-------------------------------------------------------------------------------------| 

e|---------------------------------------------------------------------------| 
B|---------------------------------------------------------------------------| 
G|-2-----------2-------------------------------------------------------------| 
D|-2-----------2-------------------------------------------------------------| 
A|-0-x-x-2p0---0-x-x-2p0---0--2p0----2p0----2p0----2p0-----------------------| 
E|-----------3-----------3--------3------3------3------3---------------------| 

Outro 
  (Play this to the last part of the refrain) 
  (8x) 
e|-10-9---------------------------------------------------------------------------| 
B|------10------------------------------------------------------------------------| 
G|--------------------------------------------------------------------------------| 
D|--------------------------------------------------------------------------------| 
A|--------------------------------------------------------------------------------| 
E|--------------------------------------------------------------------------------| 

e|-----------------------------------------------------------------------------------| 
B|-----------------------------------------------------------------------------------| 
G|-7--2-----2--7---------------------------------------------------------------------| 
D|-7--2-----2--7---------------------------------------------------------------------| 
A|-5--0-2-3-0--5---------------------------------------------------------------------| 
E|-----------------------------------------------------------------------------------| 




************************************ 

| x   Dead note 
| h   Hammer-on 
| p   Pull-off 
| b   Bend 
| br  Bend release 


************************************ 
  

top 5 | böhse onkelz
top rock grunge
Outras músicas do artista letras do(a) Böhse Onkelz
Top cifras »Top artistas »
Petaxxon Comunicação Online
Cifras.com.br - Melhor e mais completo site de cifras e tablaturas do Brasil
Mais de 1 milhão de acordes de músicas cadastradas desde 2003
As informações contidas no nosso site são colaborações de seus usuários e podem conter erros, sendo assim, não nos responsabilizamos sobre nenhuma destas.
close
menos
mais
close
Cor dos acordes:

Cor da letra:

 

save
close
close
 
redimensionar