Cifras e Tablaturas
Bahamas

Bahamas

No Depression

Cifras Cancelar Versão de Impressão

Bahamas - No Depression

Tom: F

  			
Intro Lick 
e|----------------|---------|-----------------|---------------------------------| 
B|---11-10--------|---6/8~--|------11-10------|---------------------------------| 
G|----------12-10-|---5/7~--|-----------12-10-|---------------------------------| 
D|----------------|---------|-----------------|-10h12~--------------------------| 
A|----------------|---------|-----------------|---------------------------------| 
E|----------------|---------|-----------------|---------------------------------| 

**This gets played/ can be played all over the song** 

Verse 
                F     A#    F     A# 
e|--------------8---|--6--|---8--|---6--------------------------------------------| 
B|---11-10~-----10--|--6--|---10-|---6--------------------------------------------| 
G|--------------10--|--7--|---10-|---7--------(you can throw the------------------| 
D|--------------10--|--8--|---10-|---8------------intro lick in here if you're----| 
A|--------------8---|--8--|---8--|---8----------------feelin' it)-----------------| 
E|--------------x---|--6--|---x--|---6--------------------------------------------| 

Chorus 
    A#  Dm  F 
e|--6--|-5--|-(8)---------------------------------------------------------------------6---| 
B|--6--|-6--|-(10)---------------10------------10-----------------10-10h11h13--11-10--6---| 
G|--7--|-7--|-(10)--------10h12---------10h12----------10--10h12----------------------7---| 
D|--8--|-7--|-(10)---10h12---------10h12----------10h12-------------------------------8---| 
A|--8--|-5--|-(8)---------------------------------------------------------------------8---| 
E|--6--|-x--|--x----------------------------------------------------------------------6---| 

**you can totally throw in some way cooler chord arpeggiations in here like Afie does** 

    A#  Dm  C 
e|--6---5---3-----------------------------------------------------------------| 
B|--6---6---5------------------I haven't figured out--------------------------| 
G|--7---7---5-----------------------the cool lick here yet--------------------| 
D|--8---7---5-----------------------------------------------------------------| 
A|--8---5---3-----------------------------------------------------------------| 
E|--6---x---x-----------------------------------------------------------------| 

Outro 
LEAD GUITAR 
                F     A#    F     A# 
e|--------------8---|--6--|---8--|---6--------------------------------------------| 
B|---11-10~-----10--|--6--|---10-|---6--------------------------------------------| 
G|--------------10--|--7--|---10-|---7--------(you can throw the------------------| 
D|--------------10--|--8--|---10-|---8------------intro lick in here if you're----| 
A|--------------8---|--8--|---8--|---8----------------feelin' it)-----------------| 
E|--------------x---|--6--|---x--|---6--------------------------------------------| 

NECESSARY FRILL GUITAR 
e|-13--|    
B|-13--| 
G|-14--| 
D|-x---| 
A|-x---| 
E|-x---| 



************************************ 

| /    Slide up 
| ~    Vibrato 
| h    Hammer-on 
| x    Dead note 
| (n)  Ghost note 

************************************ 
    	
fixar
fixar inscrever-se

enviado porenviado por: jessgomes
cifra enviadaCorrigida por: sem correções
logo top cifrasComente
ico música do artistaMúsicas deste artista
ico curtiuCurtiu?
ico destaqueDestaque
Petaxxon Comunicação Online

Cifras.com.br - Melhor e mais completo site de cifras e tablaturas do Brasil Mais de 1 milhão de acordes de músicas cadastradas desde 2003
As informações contidas no nosso site são colaborações de seus usuários e podem conter erros, sendo assim, não nos responsabilizamos sobre nenhuma destas.

close
menos
mais
close
Cor dos acordes:

Cor da letra:

close
Alinhar acordes a direita Alinhar acordes a esquerda Alinhar acordes em baixo Alinhar acordes no topo
close
  Mostrar todos os acordes Esconder acordes muito fáceis Esconder acordes fáceis Esconder acordes intermediários
redimensionar
glossário