Cifras e Tablaturas
Cifras Cancelar Versão de Impressão
cifras

Band of Skulls - Killer

fixar na tela  
Exibindo: vídeo-aula ver clipes redimensionar

Tom:

  
Intro 
e|---------------------------------------------------------------------------| 
B|---------------------------------------------------------------------------| 
G|-14--13--11~---11-10-9~----9--8--7~----4---6~------------------------------| 
D|---------------------------------------------------------------------------| 
A|-12--11--9~----9--8--7~----7--6--5~----2---4~------------------------------| 
D|---------------------------------------------------------------------------| 

Verse 
P.M........................................................................... 
e|---------------------------------------------------------------------------| 
B|---------------------------------------------------------------------------| 
G|---------------------------------------------------------------------------| 
D|---------------------------------------------------------------------------| 
A|-0-2-0---0--------------------------0-2-0---0------------------------------| 
E|-------4---4-2-4----4-4----4-4------------4---4-2-4----4-4----4-4----------| 

P.M........................................................................... 
e|---------------------------------------------------------------------------| 
B|---------------------------------------------------------------------------| 
G|---------------------------------------------------------------------------| 
D|---------------------------------------------------------------------------| 
A|-0-2-0---0--------------------------0-2-0---0------------------------------| 
E|-------4---4-0-2----2-2----2-2------------4---4-2-0----0-0----0-2----------| 

P.M........................................................................... 
e|---------------------------------------------------------------------------| 
B|---------------------------------------------------------------------------| 
G|---------------------------------------------------------------------------| 
D|---------------------------------------------------------------------------| 
A|-0-2-0---0--------------------------0-2-0---0------------------------------| 
E|-------4---4-2-4-4-4-4-4-4-4-4-4-4--------4---4-2-4-4-4-4-4-4-4-4-4-4------| 

P.M........................................................................... 
e|---------------------------------------------------------------------------| 
B|---------------------------------------------------------------------------| 
G|---------------------------------------------------------------------------| 
D|---------------------------------------------------------------------------| 
A|-0-2-0---0--------------------------0-2-0---0------------------------------| 
E|-------4---4-0-2-2-2-2-2-2-2-2-2-2--------4---4-2-0-0-0-0-0-0-0-0-2--------| 

Chorus 
I'm your favourite enemy... 
e|---------------------------------------------------------------------------| 
B|---------------------------------------------------------------------------| 
G|-14--13--11~---11-10-9~----9--8--7~----4---6~------------------------------| 
D|---------------------------------------------------------------------------| 
A|-12--11--9~----9--8--7~----7--6--5~----2---4~------------------------------| 
D|---------------------------------------------------------------------------| 

Woooo, Killer killer killer... 
e|---------------------------------------------------------------------------| 
B|---------------------------------------------------------------------------| x4 
G|-9--10-11------------------------------------------------------------------| 
D|---------------------------------------------------------------------------| 
A|-7--8--9-------------------------------------------------------------------| 
D|----------0--4--0--4--0--4-------------------------------------------------| 

Get out the way if you can't stand the flack... 
e|---------------------------------------------------------------------------| 
B|---------------------------------------------------------------------------| x2 
G|-11-11-11-11-9-------------------------------------------------------------| 
D|---------------------------------------------------------------------------| 
A|-9--9--9--9--7-------------------------------------------------------------| 
E|----------------4-4-4-4-0--------------------------------------------------| 


e|---------------------------------------------------------------------------| 
B|---------------------------------------------------------------------------| x2 
G|-9--10-11------------------------------------------------------------------| 
D|---------------------------------------------------------------------------| 
A|-7--8--9-------------------------------------------------------------------| 
D|----------0--4--0--4--0--4-------------------------------------------------| 



************************************ 

| ~   Vibrato 

************************************ 
  

top 5 | band of skulls
top
Outras músicas do artista letras do(a) Band of Skulls
Top cifras »Top artistas »
Petaxxon Comunicação Online
Cifras.com.br - Melhor e mais completo site de cifras e tablaturas do Brasil
Mais de 1 milhão de acordes de músicas cadastradas desde 2003
As informações contidas no nosso site são colaborações de seus usuários e podem conter erros, sendo assim, não nos responsabilizamos sobre nenhuma destas.
close
menos
mais
close
Cor dos acordes:

Cor da letra:

 

save
close
close
 
redimensionar