Cifras e Tablaturas
Band of Skulls

Band of Skulls

So Good

Cifras Cancelar Versão de Impressão
cifras

Band of Skulls - So Good

fixar na tela  
Exibindo: vídeo-aula ver clipes redimensionar

Tom:

  

Main riff/melody (Intro) 
e|------------------------------------|-------------------------------| 
B|---7--5--3--------------------------|---7--5--3-----3--5--5--5~-----| 
G|------------4-----------------------|------------4------------------| 
D|---------------7--5-----------5--7--|-------------------------------| 
A|---------------------7--5--7--------|-------------------------------| 
E|------------------------------------|-------------------------------| x2 


verse 1 
e|------------------------------------|-------------------------------| 
B|---7--5--3--------------------------|---7--5--3-----3--5--5--5~-----| 
G|------------4-----------------------|------------4------------------| 
D|---------------7--5-----------5--7--|-------------------------------| 
A|---------------------7--5--7--------|-------------------------------| 
E|------------------------------------|-------------------------------| x4 


Chorus 1 
e|--7--7--7--7--7--7--7--7------|-------------------------------| 
B|--8--8--8--8--8--8--8--8------|-------------------------------| 
G|--9--9--9--9--9--9--9--9------|-------------------------------| 
D|--9--9--9--9--9--9--9--9------|-------------------------------| 
A|--7--7--7--7--7--7--7--7------|-------------------------------| 
E|--x--x--x--x--x--x--x--x------|---0--0--0--0--x--0--0--0--0---| x2 


verse 2 
e|------------------------------------|-------------------------------| 
B|---7--5--3--------------------------|---7--5--3-----3--5--5--5~-----| 
G|------------4-----------------------|------------4------------------| 
D|---------------7--5-----------5--7--|-------------------------------| 
A|---------------------7--5--7--------|-------------------------------| 
E|------------------------------------|-------------------------------| x4 


Chorus 2 
e|--7--7--7--7--7--7--7--7------|-------------------------------| 
B|--8--8--8--8--8--8--8--8------|-------------------------------| 
G|--9--9--9--9--9--9--9--9------|-------------------------------| 
D|--9--9--9--9--9--9--9--9------|-------------------------------| 
A|--7--7--7--7--7--7--7--7------|-------------------------------| 
E|--x--x--x--x--x--x--x--x------|---0--0--0--0--x--0--0--0--0---| x4 


Bridge 
e|--------------------------------------|-----------------------------------| 
B|---7--5--7~---5--3--5~--0--7--0--7~---|---7--5--7~---5--3--5~--0--7--0~---| 
G|--------------------------------------|-----------------------------------| 
D|--------------------------------------|-----------------------------------| 
A|--------------------------------------|-----------------------------------| 
E|--------------------------------------|-----------------------------------| x2 


Chorus 3(end) 
e|--7--7--7--7--7--7--7--7------|-------------------------------| 
B|--8--8--8--8--8--8--8--8------|-------------------------------| 
G|--9--9--9--9--9--9--9--9------|-------------------------------| 
D|--9--9--9--9--9--9--9--9------|-------------------------------| 
A|--7--7--7--7--7--7--7--7------|-------------------------------| 
E|--x--x--x--x--x--x--x--x------|---0--0--0--0--x--0--0--0--0---| x4 


******************************************* 

~  vibrato 
x  dead note 

******************************************* 
  

top 5 | band of skulls
top
Outras músicas do artista letras do(a) Band of Skulls
Top cifras »Top artistas »
Petaxxon Comunicação Online
Cifras.com.br - Melhor e mais completo site de cifras e tablaturas do Brasil
Mais de 1 milhão de acordes de músicas cadastradas desde 2003
As informações contidas no nosso site são colaborações de seus usuários e podem conter erros, sendo assim, não nos responsabilizamos sobre nenhuma destas.
close
menos
mais
close
Cor dos acordes:

Cor da letra:

 

save
close
close
 
redimensionar