Cifras e Tablaturas
Banda Moryah

Banda Moryah

Glória Ii

Cifras Cancelar Versão de Impressão

Banda Moryah - Glória Ii

Tom: Am

  			        Am              C              Bb               F 
D|----7-7-7-7-7-7-7-7-9-9-9-9-9-9-9-9-5-5-5-5-5-5-5-5-7-7-7-7-7-7-7-7-| 
A|----x-x-x-x-x-x-x-x-x-x-x-x-x-x-x-x-x-x-x-x-x-x-x-x-x-x-x-x-x-x-x-x-| 
F|----4-4-4-4-4-4-4-4-6-6-6-6-6-6-6-6-2-2-2-2-2-2-2-2-4-4-4-4-4-4-4-4-| 
C|--------------------------------------------------------------------| 
G|--------------------------------------------------------------------| 
C|--------------------------------------------------------------------| 

        Am              C              Bb               F        G 
D|- ------------------------------------------------------------------| 
A|--------------------------------------------------------------------| 
F|--------------------------------------------------------------------| 
C|----4-4-4-4-4-4-4-4-6-6-6-6-6-6-6-6-2---2-2-2---2--2-2-2-2-4-4-4-4--| 
G|----x-x-x-x-x-x-x-x-x-x-x-x-x-x-x-x-x---x-x-x---x--x-x-x-x-x-x-x-x--| 
C|----7-7-7-7-7-7-7-7-9-9-9-9-9-9-9-9-5---5-5-5---5--5-5-5-5-7-7-7-7--| 

Am                C               Bb            F 
Nada vai ser como era antes de Te conhecer 
Am                 C                Bb 
Tenho que só Te agradecer por nunca ter 
        F      G 
Nos deixado sozinhos 
Am           C                    Bb                    F          G 
As palavras, as promessas que se cumprem em cada manhã. (Nos faz recomeçar) 
Am                      C               Bb 
São as provas de que o Seu amor está presente 
      F         G 
Dia e noite pra nós 


Refrão guitarra VIQUE                         

         Am                G                F                 Em           G 
E|-------------------------------------------------------------------------------------- 
B|-------------------------------------------------5h6r5--------5------------8---------- 
G|-------------5-------------4h5-4------------5--------------5------5----5---------5---- 
D|--7-7--5h7------7~---5-5----------5----5/7-----7--------7------------7---------------- 
A|--7-7----------------5-5-------------------------------------------------------------- 
D|--7-7----------------5-5-------------------------------------------------------------- 


E|-------------------------------------------15------------------------------------------------- 
B|--------------11-----11---10------10------12-------12----------15---------13------12---------- 
G|-----12/14-----12------------12---------------14-------14-----------14--------14--------14---- 
D|---------------------------------------------------------------------------------------------- 
A|---------------------------------------------------------------------------------------------- 
D|---------------------------------------------------------------------------------------------- 


Refrão guitarra JEE 


       Am                    G                    F        Em          G 
E|-----------------------------------------------------------------------------------| 
B|-----------------------------------------------------------------------------------| 
G|-----------------------------------------------------------------------------------| 
D|--7-7-----------2-------5-5------0h2-0------3-3-3-3---2-2-2-2----5-5-5-5------| 
A|--7-7-----2h3----3~-----5-5------------2----3-3-3-3---2-2-2-2----5-5-5-5------| 
D|--7-7-------------------5-5-----------------3-3-3-3---2-2-2-2----5-5-5-5------| 


Am 
Ah Ah Ah Ah 
G 
Ah Ah Ah  Ah 
F      Em           G 
Aqui estamos pra te Adorar 
Am 
Glória ah ah 
G 
Glória ah ah 
F   Em         G 
Por nunca nos abandonar 


         Am        Am       Am        Am 
B|---10~---/---12~--/---15~---/---17~---- 


Base Solo: (Am    Dm   C   Dm /  Em /  Dm) 
Solo:  

E|--------------------------------------------------------------------------------------------- 
B|--14--14--14--14----------------------------------------6-----5---8-8-8-6-6-6-5--4h5r4----- 
G|--16b-16b-16b-16b---16-14h16-16-16-16~------9b-7------5-----5-----5-5-5-5-5-5-5-5---------- 
D|---------------------------------------------------9----------------------------------------- 
A|--------------------------------------------------------------------------------------------- 
D|--------------------------------------------------------------------------------------------- 

Am      Dm             C         Dm    Em       Am  Dm            C      Dm  Em 
Pessoas mentem, vão errar tentar nos fazer cair.Mas Deus não nos deixa jamais. 
Am       Dm            C             Dm     Em      Am                  Dm        C   Dm   Em 
O mundo cai os ventos sopram valores que se perdem. E mesmo assim Ele espera por nós. 
Guit 1  

       Am        G      F    Em       G       Am 
E|--------------------------------------|--------------------------- 
B|--8--------8------8-----8-------8-----|-----10----10---10---10---- 
G|--5--------5------7-----7-------5-----|-----12b^--12b^-12b^-12b^-- 
D|--7--------5--------------------5-----|--------------------------- 
A|------------------8-----7-------------|--------------------------- 
D|--------------------------------------|--------------------------- 

Guit 2 

         Am                    G                      F                   Em               G 
E|--------------------------------------------------------------------------------------------------- 
B|--------------------------------------------------------------------------------------------------- 
G|-------------------12---------------------12------------------12-------------9-----------------12-- 
D|---------10--------------------10---------------------10-----------------7------7---------10------- 
A|---12---------12---------10----------10----------8---------8--------7----------------10------------ 
D|--------------------------------------------------------------------------------------------------- 

(Am  G  F  Em  G) 
Vivo em sonhos, verdades e mentiras e em coisa que não sei explicar. 
Procuro entender as pessoas e o mundo e a cada dia que passa sinto que isso é uma vitória 
Mesmo assim continuo sangrando, insistindo nessa trajetória.  
Onde a fé me ergue e me mostra que a perfeição do homem não é como a Sua 
Sim eu sei que está me olhando agora 
Sei que me olhou ontem enquanto eu fechava meus olhos tentando esconder o vazio que havia em mim 
Cai enquanto apontavam o dedo, deitei nos meus próprios cacos enquanto a fraqueza me consumia. 
E só me resta esse fogo que me manda que queima todo o negro em minha volta 
Sinto que quanto mais eu creio mais ele me consome e traz o Seu perdão e a Sua glória! 

Final: Em                        F 
   v    v ^ v   v  v   v ^ v      v  v  v  v     v ^ v     v ^ v 

E|------------------------------|---------------------------------| 
B|------------------------------|---------------------------------| 
G|------------------------------|---------------------------------| 
D|-2----2-2-2---2--2---2-2-2----|-3--3--3--3-----3-3-3-----3-3-3--| 
A|-2----2-2-2---2--2---2-2-2----|-3--3--3--3-----3-3-3-----3-3-3--| 
D|-2----2-2-2---2--2---2-2-2----|-3--3--3--3-----3-3-3-----3-3-3--| 
    	
fixar
fixar inscrever-se

enviado porenviado por: lucicamargo
cifra enviadaCorrigida por: sem correções
logo top cifrasComente
ico música do artistaMúsicas deste artista
ico curtiuCurtiu?
ico destaqueDestaque
Petaxxon Comunicação Online

Cifras.com.br - Melhor e mais completo site de cifras e tablaturas do Brasil Mais de 1 milhão de acordes de músicas cadastradas desde 2003
As informações contidas no nosso site são colaborações de seus usuários e podem conter erros, sendo assim, não nos responsabilizamos sobre nenhuma destas.

close
menos
mais
close
Cor dos acordes:

Cor da letra:

close
Alinhar acordes a direita Alinhar acordes a esquerda Alinhar acordes em baixo Alinhar acordes no topo
close
  Mostrar todos os acordes Esconder acordes muito fáceis Esconder acordes fáceis Esconder acordes intermediários
redimensionar
glossário