Cifras e Tablaturas
Barão Vermelho

Barão Vermelho

Bete Balanço Tablatura Verificada

Compositor : (Frejat / Cazuza)

Cifras Cancelar Versão de Impressão
cifras

Barão Vermelho - Bete Balanço

fixar na tela  
Exibindo: vídeo-aula ver clipes redimensionar
  
Riff 1: E5 C#5 D5 A5 C#5 D5 

e|----------------------------------------------------------| 
B|----------------------------------------------------------| 
G|-----9----6/7----9---6/7\6/7----9---6/7----9---6/7\6/7----| 
D|-----9----6/7----9---6/7\6/7----9---6/7----9---6/7\6/7----| 
A|-----7-----------7--------------7----------7--------------| 
E|----------------------------------------------------------| 

e|-----------------------------------------------------| 
B|-----------------------------------------------------| 
G|---------4/5--------4/5\4/5----9---6/7---9---6/7\6/7-| 
D|----7----4/5---7----4/5\4/5----9---6/7---9---6/7\6/7-| 
A|----7----------7---------------7---------7-----------| 
E|-----------------------------------------------------| 


e|---------| 
B|-15b17~~-| 
G|---------| 
D|---------| 
A|---------| 
E|---------| 


Refrão: B5 C5 A5 B5 C5 B5 G5 A5 

e|---------------------------------------------| 
B|---------------------------------------------| 
G|-4---4---5---2----4---4---5--5--5--4---------| 
D|-4---4---5---2----4---4---5--5--5--4--5--5/7-| 
A|-2---2---3---0----2---2---3--3--3--2--5--5/7-| 
E|--------------------------------------3--3/7-| 

Solo 1: 

e|-----------------------------------------------10----10----| 
B|-----------------------------------------------10h12-10----| 
G|-----7~~~-----------------------------------------------12-| 
D|-7/9-------7b9r7-5-7--7-9-5b7------------5b7---------------| 
A|------------------------------7-5-7~~--7-------------------| 
E|-----------------------------------------------------------| 

e|-10-10-10----10------10----10----10--10--------------------------| 
B|-10-10-10----10h12---10h12-10----10--10-12-8b9-------------------| 
G|----------12------------------12---------------9-7-9~~--x--7/9\7-| 
D|--------------------------------------------------------x--7/9\7-| 
A|-----------------------------------------------------------------| 
E|-----------------------------------------------------------------| 


Ponte: Bm F#m Bm F#m C5 

e|-2--2--2--2--2--2-----------------| 
B|-3--3--2--2--3--3-----------------| 
G|-4--4--2--2--4--4-----------------| 
D|-4--4--4--4--4--4---2-2-2-2-0-----| 
A|-2--2--4--4--2--2-------------3~~-| 
E|-------2--2-----------------------| 

e|-2--2--2--2--2--2--------3-------7-7-7\-| 
B|-3--3--2--2--3--3----------5--3--8-8-8\-| 
G|-4--4--2--2--4--4--5-------------7-7-7\-| 
D|-4--4--4--4--4--4--5--------------------| 
A|-2--2--4--4--2--2--3--------------------| 
E|-------2--2-----------------------------| 

Solo 2: 

e|---------------------------------------------------------------| 
B|-15b17-15b17r15-------12-14-14b15-14b15-14b15r14-12----12~~~~--| 
G|----------------------------------------------------14---------| 
D|---------------------------------------------------------------| 
A|---------------------------------------------------------------| 
E|---------------------------------------------------------------| 

e|------------------------------------------------------------| 
B|---------------------------------------------------------12-| 
G|-12h14-12----12h14~~-14-12-14~~-14-12-14~~-14-12-14~~-14----| 
D|----------14------------------------------------------------| 
A|------------------------------------------------------------| 
E|------------------------------------------------------------| 

e|------------------------12-14-14h15-14-12-----------------| 
B|----------12\-----14-15-------------------14-12----15b17--| 
G|-12b------12\---------------------------------------------| 
D|-----14~~-12\---------------------------------------------| 
A|----------------------------------------------------------| 
E|----------------------------------------------------------| 

e|-----------------------------------------------15b17r15-12-----| 
B|-12h15-12~~-----------------15----15-----------------------12\-| 
G|-------------12h14-12----12-14b16----16r14-12------------------| 
D|----------------------14---------------------------------------| 
A|---------------------------------------------------------------| 
E|---------------------------------------------------------------| 

e|------------------------------------------------------------| 
B|------------15b17-15b17-15~~-12-15-12--------13/15----------| 
G|--------------------------------------14-12--------12-------| 
D|------------------------------------------------------14~~--| 
A|-x----------------------------------------------------------| 
E|-x-17\------------------------------------------------------| 

e|---------------------------------15h17-17b19-17b19-15------| 
B|------------------------------17----------------------17~~-| 
G|-12----12b-12b---------------------------------------------| 
D|----14---------14-12~~\------------------------------------| 
A|-----------------------------------------------------------| 
E|-----------------------------------------------------------| 

e|----15------------------------------------------------------| 
B|-17----17~~-15b17r15-------------15-15~~-15~~-15~~-15~~-\---| 
G|---------------------16-14-14h16----------------------------| 
D|------------------------------------------------------------| 
A|------------------------------------------------------------| 
E|------------------------------------------------------------| 

e|---------------------------| 
B|-15b17r15-12-15b17-15b17~~-| 
G|---------------------------| 
D|---------------------------| 
A|---------------------------| 
E|---------------------------| 

  

cifra enviadacorrigido por:Acelot
enviado porenviada por:rothpunk
top 5 | barão vermelho
top rock'n roll
Outras músicas do artista letras do(a) Barão Vermelho
Top cifras »Top artistas »
Petaxxon Comunicação Online
Cifras.com.br - Melhor e mais completo site de cifras e tablaturas do Brasil
Mais de 1 milhão de acordes de músicas cadastradas desde 2003
As informações contidas no nosso site são colaborações de seus usuários e podem conter erros, sendo assim, não nos responsabilizamos sobre nenhuma destas.
close
menos
mais
close
Cor dos acordes:

Cor da letra:

 

save
close
close
 
redimensionar