Cifras e Tablaturas
Bass Drum Of Death

Bass Drum Of Death

Black Don't Glow

Cifras Cancelar Versão de Impressão
cifras

Bass Drum Of Death - Black Don't Glow

fixar na tela  
Exibindo: vídeo-aula ver clipes redimensionar

Tom:

  
E|----------------- 
B|----------------- 
G|--------9-99----- 
D|7975-55-9-99-9-99 
A|7975-55-7-77-9-99 
E|5753-33------7-77 


E|----------0000------ 
B|----------9999------ 
G|----------9999------ 
D|99999999--9999-7777- 
A|99999999--7777-7777- 
E|77777777-------5555- 


Guitar 2: (Pre-Chorus) 
E|-------- 
B|-------- 
G|8~--6~-- 
D|9~--7~-- 
A|9~--7~-- 
E|7~--5~-- (Just loops) 

Guitar 1: (Pre-Chorus) 

E|------------------- 
B|------------------- 
G|------------------- 
D|------------------- 
A|------------------- 
E|7~--5~--10/11/10/11 (Just loops) 


Chorus: (Same as that part from earlier) 

E|-----0-00------------ 
B|-----9-99------------ 
G|4-44-9-99-8-88-888-/6 
D|5-55-9-99-9-99-999-/7 
A|5-55-7-77-9-99-999-/7 (Loops) 
E|3-33------7-77-777-/5  

 Suggest correction 
  

top 5 | bass drum of death
top rock alternativo
Outras músicas do artista letras do(a) Bass Drum Of Death
Top cifras »Top artistas »
Petaxxon Comunicação Online
Cifras.com.br - Melhor e mais completo site de cifras e tablaturas do Brasil
Mais de 1 milhão de acordes de músicas cadastradas desde 2003
As informações contidas no nosso site são colaborações de seus usuários e podem conter erros, sendo assim, não nos responsabilizamos sobre nenhuma destas.
close
menos
mais
close
Cor dos acordes:

Cor da letra:

 

save
close
close
 
redimensionar