Cifras e Tablaturas
Bass Drum Of Death

Bass Drum Of Death

Stain Stick Skin

Cifras Cancelar Versão de Impressão
cifras

Bass Drum Of Death - Stain Stick Skin

fixar na tela  
Exibindo: vídeo-aula ver clipes redimensionar

Tom:

  
Intro/Verse 

e|---------------------------------------------------------------------------| 
B|---------------------------------------------------------------------------| 
G|-------5-5-----------------------------------------------------------------| 
D|-----------------5-5-------------------------------------------------------|  x3 
A|---------------------------------------------------------------------------| 
E|---3-3-------3-3------3-3-6------------------------------------------------| 

e|---------------------------------------------------------------------------| 
B|---------------------------------------------------------------------------| 
G|-------5-5-------5b--------------------------------------------------------| 
D|---------------------------------------------------------------------------|  x1 
A|---------------------------------------------------------------------------| 
E|---3-3-------3-3-----------------------------------------------------------| 

Play 3 times 



Pre Chorus 

e|---------------------------------------------------------------------------| 
B|---------------------------------------------------------------------------| 
G|-----------------------------------5-5-5-5-5-5-5-5-5-5-5-5-5-5-5-5---------| 
D|---5-5-5-5-5-5-5-5-5-5-5-5-5-5-5-5-5-5-5-5-5-5-5-5-5-5-5-5-5-5-5-5---------|  x2 
A|---5-5-5-5-5-5-5-5-5-5-5-5-5-5-5-5-3-3-3-3-3-3-3-3-3-3-3-3-3-3-3-3---------| 
E|---3-3-3-3-3-3-3-3-3-3-3-3-3-3-3-3-----------------------------------------| 

e|---------------------------------------------------------------------------| 
B|---------------------------------------------------------------------------| 
G|---3-3-3-3-3-3-3-3-10-10-10-10-10-10-10-10---------------------------------| 
D|---3-3-3-3-3-3-3-3-10-10-10-10-10-10-10-10---------------------------------| 
A|---1-1-1-1-1-1-1-1-8--8--8--8--8--8--8--8----------------------------------| 
E|---------------------------------------------------------------------------| 

e|---------------------------------------------------------------------------| 
B|---------------------------------------------------------------------------| 
G|-------5-5--------------------5-5-----5b-----------------------------------| 
D|---------------5-5---------------------------------------------------------| 
A|---------------------------------------------------------------------------| 
E|---3-3-----3-3-----3-3-6--3-3-----3-3--------------------------------------| 

e|-------------------------------------------------------------------------------------------------| 
B|-------------------------------------------------------------------------------------------------| 
G|-------5-5b-------17-17b------5-5b-------17-17-17------5-5b------17-17b------5-5b--------17-17b--| 
D|-------------------------------------------------------------------------------------------------| 
A|------------15-15------------------15-15--------------------15-15------------------15-15---------| 
E|---3-3--------------------3-3----------------------3-3-------------------3-3---------------------| 



Chorus 
e|--------------------------------------------------------------------------------| 
B|--------------------------------------------------------------------------------| 
G|-------5-5b---------------------------------------------------------------------| 
D|----------------10-10-10b--8-8-8b-----------------------------------------------|  x4 
A|----------------10-10-10---8-8-8------------------------------------------------| 
E|---3-3------3-3-8--8--8----6-6-6------------------------------------------------| 


Repeat, but only play the verse 1 time the 2nd time round 

Outro 

e|---------------------------------------------------------------------------| 
B|---------------------------------------------------------------------------| 
G|---------------------------------------------------------------------------| 
D|---------------------------------------------------------------------------| 
A|---------------------------------------------------------------------------|  x5 
E|---3-3-3-1-1-1-10-10-10-6-6-6-3-3-3-1-1-1-10-10-10-6-6-6-------------------| 


e|---------------------------------------------------------------------------| 
B|---------------------------------------------------------------------------| 
G|-------19-19-19-19-19-19-19-17-17-18-18-19-19-19---------------------------|  All tremolo picked 
D|---------------------------------------------------------------------------| 
A|---------------------------------------------------------------------------| 
E|---------------------------------------------------------------------------| 


************************************ 

| p   Pull-off 
| b   Bend 
| /   Slide up 
| \   Slide down 

************************************ 
  

top 5 | bass drum of death
top rock alternativo
Outras músicas do artista letras do(a) Bass Drum Of Death
Top cifras »Top artistas »
Petaxxon Comunicação Online
Cifras.com.br - Melhor e mais completo site de cifras e tablaturas do Brasil
Mais de 1 milhão de acordes de músicas cadastradas desde 2003
As informações contidas no nosso site são colaborações de seus usuários e podem conter erros, sendo assim, não nos responsabilizamos sobre nenhuma destas.
close
menos
mais
close
Cor dos acordes:

Cor da letra:

 

save
close
close
 
redimensionar