Cifras e Tablaturas
Bebeco Garcia

Bebeco Garcia

Beijo Guardado

Compositor : (Bebeco Garcia)

Cifras Cancelar Versão de Impressão
cifras

Bebeco Garcia - Beijo Guardado

fixar na tela  
Exibindo: vídeo-aula ver clipes redimensionar
  Intro: { C# B E }  

A                                                              E                  
    Sem saber o que dizer ou entender direito 
A                                                E                   
    Toda a situação que você criou 
A                                                       E 
    Vê se precisava me tratar desse jeito 
         B                                          A                                    E 
    Estou pensando até que isso tudo vai além das suas decisões 

{ C# B E }  
    Esconde o seu sorriso 
    Deixa pra depois 

A                                                           E       
    Quando tudo isso estiver mais explicado 
A                                                    E       
    Rodando tantas voltas no mesmo lugar 
A                                     E       
    Parece até que finalmente 
               B                                                 A            E 
    Não mais consegue disfarçar tudo o que sente 

{ C# B E }  
    Esconde o seu sorriso 
    Deixa pra depois 

A                                                           E       
    Tenho um beijo guardado, vê se não esquece 
A                                                     E       
    Pode deixar por conta, é a imaginação 
A                                                      E       
    Porque você vai ter tudo o que merece 
        B                                          A                                    E 
    Então por que negar, pra destroçar meu coração? 

{ C# B E }  
    Esconde o seu sorriso 
    Deixa pra depois 


Solo: 
       A                             E                          A                                 E 
e|----------------------------------------------------------------------------------------------------------------- 
B|----------------------------------------------------------------------------------------------------------------- 
G|----------9-9---------9---------------------------------9-9---------9----11-11^(13)---------------------- 
D|--9h11----------11------/11--11----9--------9h11----------11------------------------------------------- 
A|----------------------------------------------------------------------------------------------------------------- 
E|----------------------------------------------------------------------------------------------------------------- 

      A                              E                     B                                     A                   E 
e|------------------------------------------------------------------------------------------------------------------ 
B|------------------------------------------------/9-10--10p9--------------------------9---------------------- 
G|----------9-9---------9/-------------------------------------------11--11-------11-------/11----11p9---- 
D|--9h11----------11------/11--11----9----------------------------------------------------------------------- 
A|----------------------------------------------------------------------------------------------------------------- 
E|----------------------------------------------------------------------------------------------------------------- 

SOLO FINAL: 
       A                                            E                       A                                                         E      
e|-------------12-14^(15)---12--14^(16)-14^(16)~~\------------12--14-12-14^(15)-14-12-14----------- 
B|---12h14---------------------------------------------------12h14----------------------------------------12h14-- 
G|------------------------------------------------------------------------------------------------------------------------- 
D|------------------------------------------------------------------------------------------------------------------------- 
A|------------------------------------------------------------------------------------------------------------------------- 
E|------------------------------------------------------------------------------------------------------------------------- 

       A                                                                                   E  
e|-------------12---14^(15)-12---14^(15)-12---14^(15)-12---14^(16)-14^(16)~~~~\-------------------- 
B|---12h14------------------------------------------------------------------------------------------------------------- 
G|------------------------------------------------------------------------------------------------------------------------ 
D|------------------------------------------------------------------------------------------------------------------------ 
A|------------------------------------------------------------------------------------------------------------------------ 
E|------------------------------------------------------------------------------------------------------------------------ 
         
                       B                                     A                                                             E     { C# B E } 
e|--14^(16)--14(16)rls14-14------14^(16)14---12h14p12--------12---------------------12\---------------12----------- 
B|-----------------------------------------------------------------------/14-----14--12h14p12----------12^(14)----rls12----- 
G|-----------------------------------------------------------------------------------------------------------------------------------9- 
D|-------------------------------------------------------------------------------------------------------------------------------------- 
A|-------------------------------------------------------------------------------------------------------------------------------------- 
E|--------------------------------------------------------------------------------------------------------------------------------------  
  

cifra enviadasem correções
enviado porenviada por:AlexDeguello
top 5 | bebeco garcia
top rock'n roll
Outras músicas do artista letras do(a) Bebeco Garcia
Top cifras »Top artistas »
Petaxxon Comunicação Online
Cifras.com.br - Melhor e mais completo site de cifras e tablaturas do Brasil
Mais de 1 milhão de acordes de músicas cadastradas desde 2003
As informações contidas no nosso site são colaborações de seus usuários e podem conter erros, sendo assim, não nos responsabilizamos sobre nenhuma destas.
close
menos
mais
close
Cor dos acordes:

Cor da letra:

 

save
close
close
 
redimensionar