Cifras e Tablaturas
Benjamin Francis Leftwich

Benjamin Francis Leftwich

Tilikum (acoustic)

Cifras Cancelar Versão de Impressão
cifras

Benjamin Francis Leftwich - Tilikum (acoustic)

fixar na tela  
Exibindo: vídeo-aula ver clipes redimensionar
  7 
Capo 7 

Intro: Repeat x2 
e|--------------------------|--------------------------| 
B|-----0-----0-----0-----0--|-----------0-----------0--| 
G|--1-----------------------|-----1-----------1--------| 
D|--------4-----1-----------|--------4----------4------| 
A|--------------------2-----|--------------------------| 
E|--------------------------|--4-----------4-----------| 

e|--------------------------|--------------------------| 
B|-----0-----0-----0-----0--|----------0-----------0---| 
G|--1-----------------------|----1-----------1---------| 
D|--------4-----1-----------|-------4-----------4------| 
A|--------------------2-----|--------------------------| 
E|--------------------------|--0----------0------------| 

e|--------------------------|--------------------------| 
B|-----0-----0-----0-----0--|-----------0-----------0--| 
G|--1-----------------------|-----1-----------1--------| 
D|--------4-----1-----------|--------4-----------4-----| 
A|--------------------2-----|--------------------------| 
E|--------------------------|--2-----------2-----------| 
(first play through)                
e|--------------------------|--------------------------| 
B|-----------0-----------0--|-----------0-----------0--| 
G|-----1-----------1--------|-----1-----------1--------| 
D|--------4-----------4-----|--------4-----------4-----| 
A|--------------------------|--------------------------| 
E|--4-----------2-----------|--0-----------0-----------| 
(second play through)                
e|--------------------------|--------------------------|--------------------------| 
B|-----------0-----------0--|-----------2~----------0--|-----------0-----------0--| 
G|-----1-----------1--------|-----1-----------1--------|-----1-----------1--------| 
D|--------4-----------4-----|--------4-----------4-----|--------4-----------4-----| 
A|--------------------------|--------------------------|--------------------------| 
E|--4-----------2-----------|--0-----------0-----------|--0-----------0-----------| 

VERSE #1: 
I wonder what you're thinking... 
e|--------------------------|--------------------------|--------------------------|--------------------------| 
B|-----0-----0-----0-----0--|-----------0-----------0--|-----------0-----------0--|-----------0-----------0--| 
G|--1-----------------------|-----1-----------1--------|-----1-----------1--------|-----1-----------1--------| 
D|--------4-----1-----------|--------4-----------4-----|--------4-----------4-----|--------4-----------4-----| 
A|--------------------2-----|--------------------------|--------------------------|--------------------------| 
E|--------------------------|--4-----------4-----------|--4-----------4-----------|--4-----------4-----------| 

Staring through the rain... 
e|--------------------------|--------------------------|--------------------------|--------------------------| 
B|-----0-----0-----0-----0--|-----------0-----------0--|-----------0-----------0--|-----------0-----------0--| 
G|--1-----------------------|-----1-----------1--------|-----1-----------1--------|-----1-----------1--------| 
D|--------4-----1-----------|--------4-----------4-----|--------4-----------4-----|--------4-----------4-----| 
A|--------------------2-----|--------------------------|--------------------------|--------------------------| 
E|--------------------------|--0-----------0-----------|--0-----------0-----------|--0-----------0-----------| 

Going through our baby names... 
e|--------------------------|--------------------------|--------------------------|--------------------------| 
B|-----0-----0-----0-----0--|-----------0-----------0--|-----------0-----------0--|-----------0-----------0--| 
G|--1-----------------------|-----1-----------1--------|-----1-----------1--------|-----1-----------1--------| 
D|--------4-----1-----------|--------4-----------4-----|--------4-----------4-----|--------4-----------4-----| 
A|--------------------2-----|--------------------------|--------------------------|--------------------------| 
E|--------------------------|--2-----------2-----------|--4-----------2-----------|--0-----------0-----------| 

Your husband thinks you're sleeping... 
e|--------------------------|--------------------------|--------------------------|--------------------------| 
B|-----0-----0-----0-----0--|-----------0-----------0--|-----------0-----------0--|-----------0-----------0--| 
G|--1-----------------------|-----1-----------1--------|-----1-----------1--------|-----1-----------1--------| 
D|--------4-----1-----------|--------4-----------4-----|--------4-----------4-----|--------4-----------4-----| 
A|--------------------2-----|--------------------------|--------------------------|--------------------------| 
E|--------------------------|--4-----------4-----------|--4-----------4-----------|--4-----------4-----------| 

At a motorway hotel... 
e|--------------------------|--------------------------|--------------------------|--------------------------| 
B|-----0-----0-----0-----0--|-----------0-----------0--|-----------0-----------0--|-----------0-----------0--| 
G|--1-----------------------|-----1-----------1--------|-----1-----------1--------|-----1-----------1--------| 
D|--------4-----1-----------|--------4-----------4-----|--------4-----------4-----|--------4-----------4-----| 
A|--------------------2-----|--------------------------|--------------------------|--------------------------| 
E|--------------------------|--0-----------0-----------|--0-----------0-----------|--0-----------0-----------| 

He doesn't know tonight you're flying out of hell... 
e|--------------------------|--------------------------|--------------------------|--------------------------| 
B|-----0-----0-----0-----0--|-----------0-----------0--|-----------0-----------0--|-----------0-----------0--| 
G|--1-----------------------|-----1-----------1--------|-----1-----------1--------|-----1-----------1--------| 
D|--------4-----1-----------|--------4-----------4-----|--------4-----------4-----|--------4-----------4-----| 
A|--------------------2-----|--------------------------|--------------------------|--------------------------| 
E|--------------------------|--2-----------2-----------|--4-----------2-----------|--0-----------0-----------| 

Chorus #1: 
Be my rose...                                           Growing in the cold... 
e|--------------------------|--------------------------|--------------------------|--------------------------| 
B|-----------0-----------0--|-----------4-----------0--|-----------2-----------0--|-----------2-----------0--| 
G|-----1-----------1--------|-----1-----------1--------|-----1-----------1--------|-----1-----------1--------| 
D|--------4-----------4-----|--------4-----------4-----|--------4-----------4-----|--------4-----------4-----| 
A|--------------------------|--------------------------|--------------------------|--------------------------| 
E|--4-----------2-----------|--0-----------0-----------|--0-----------0-----------|--2-----------2-----------| 

Be my light in the window at home... 
e|--------------------------|--------------------------|--------------------------|--------------------------| 
B|-----------0-----------0--|-----------4-----------0--|-----------2-----------0--|-----------0-----------0--| 
G|-----1-----------1--------|-----1-----------1--------|-----1-----------1--------|-----1-----------1--------| 
D|--------4-----------4-----|--------4-----------4-----|--------4-----------4-----|--------4-----------4-----| 
A|--------------------------|--2-----------2-----------|--------------------------|--------------------------| 
E|--2-----------2-----------|--------------------------|--2-----------2-----------|--0-----------0-----------| 

Be my Sun...                                            Rising in the sky... 
e|--------------------------|--------------------------|--------------------------|--------------------------| 
B|-----------0-----------0--|-----------4-----------0--|-----------2-----------0--|-----------2-----------0--| 
G|-----1-----------1--------|-----1-----------1--------|-----1-----------1--------|-----1-----------1--------| 
D|--------4-----------4-----|--------4-----------4-----|--------4-----------4-----|--------4-----------4-----| 
A|--------------------------|--------------------------|--------------------------|--------------------------| 
E|--4-----------2-----------|--0-----------0-----------|--0-----------0-----------|--2-----------2-----------| 

Be my time bomb lover tonight... 
e|--------------------------|--------------------------|--------------------------|--------------------------| 
B|-----------0-----------0--|-----------4-----------0--|-----------2-----------0--|-----------0-----------0--| 
G|-----1-----------1--------|-----1-----------1--------|-----1-----------1--------|-----1-----------1--------| 
D|--------4-----------4-----|--------4-----------4-----|--------4-----------4-----|--------4-----------4-----| 
A|--------------------------|--2-----------2-----------|--------------------------|--------------------------| 
E|--2-----------2-----------|--------------------------|--2-----------2-----------|--0-----------0-----------| 

BRIDGE #1: 
e|--------------------------|--------------------------| 
B|-----0-----0-----0-----0--|-----------0-----------0--| 
G|--1-----------------------|-----1-----------1--------| 
D|--------4-----1-----------|--------4----------4------| 
A|--------------------2-----|--------------------------| 
E|--------------------------|--4-----------4-----------| 

e|--------------------------|--------------------------| 
B|-----0-----0-----0-----0--|----------0-----------0---| 
G|--1-----------------------|----1-----------1---------| 
D|--------4-----1-----------|-------4-----------4------| 
A|--------------------2-----|--------------------------| 
E|--------------------------|--0----------0------------| 

e|--------------------------|--------------------------| 
B|-----0-----0-----0-----0--|-----------0-----------0--| 
G|--1-----------------------|-----1-----------1--------| 
D|--------4-----1-----------|--------4-----------4-----| 
A|--------------------2-----|--------------------------| 
E|--------------------------|--2-----------2-----------| 
               
e|--------------------------|--------------------------| 
B|-----------0-----------0--|-----------0-----------0--| 
G|-----1-----------1--------|-----1-----------1--------| 
D|--------4-----------4-----|--------4-----------4-----| 
A|--------------------------|--------------------------| 
E|--4-----------2-----------|--0-----------0-----------| 

VERSE #2: 
You're turning on your phone now... 
e|--------------------------|--------------------------|--------------------------|--------------------------| 
B|-----0-----0-----0-----0--|-----------0-----------0--|-----------0-----------0--|-----------0-----------0--| 
G|--1-----------------------|-----1-----------1--------|-----1-----------1--------|-----1-----------1--------| 
D|--------4-----1-----------|--------4-----------4-----|--------4-----------4-----|--------4-----------4-----| 
A|--------------------2-----|--------------------------|--------------------------|--------------------------| 
E|--------------------------|--4-----------4-----------|--4-----------4-----------|--4-----------4-----------| 

Your hands begin to shake... 
e|--------------------------|--------------------------|--------------------------|--------------------------| 
B|-----0-----0-----0-----0--|-----------0-----------0--|-----------0-----------0--|-----------0-----------0--| 
G|--1-----------------------|-----1-----------1--------|-----1-----------1--------|-----1-----------1--------| 
D|--------4-----1-----------|--------4-----------4-----|--------4-----------4-----|--------4-----------4-----| 
A|--------------------2-----|--------------------------|--------------------------|--------------------------| 
E|--------------------------|--0-----------0-----------|--0-----------0-----------|--0-----------0-----------| 
I'm just across the harbour bridge, you say... 
e|--------------------------|--------------------------|--------------------------|--------------------------| 
B|-----0-----0-----0-----0--|-----------0-----------0--|-----------0-----------0--|-----------0-----------0--| 
G|--1-----------------------|-----1-----------1--------|-----1-----------1--------|-----1-----------1--------| 
D|--------4-----1-----------|--------4-----------4-----|--------4-----------4-----|--------4-----------4-----| 
A|--------------------2-----|--------------------------|--------------------------|--------------------------| 
E|--------------------------|--2-----------2-----------|--4-----------2-----------|--0-----------0-----------| 

I flew out here to tell you... 
e|--------------------------|--------------------------|--------------------------|--------------------------| 
B|-----0-----0-----0-----0--|-----------0-----------0--|-----------0-----------0--|-----------0-----------0--| 
G|--1-----------------------|-----1-----------1--------|-----1-----------1--------|-----1-----------1--------| 
D|--------4-----1-----------|--------4-----------4-----|--------4-----------4-----|--------4-----------4-----| 
A|--------------------2-----|--------------------------|--------------------------|--------------------------| 
E|--------------------------|--4-----------4-----------|--4-----------4-----------|--4-----------4-----------| 

I couldn't hold your pain then... 
e|--------------------------|--------------------------|--------------------------|--------------------------| 
B|-----0-----0-----0-----0--|-----------0-----------0--|-----------0-----------0--|-----------0-----------0--| 
G|--1-----------------------|-----1-----------1--------|-----1-----------1--------|-----1-----------1--------| 
D|--------4-----1-----------|--------4-----------4-----|--------4-----------4-----|--------4-----------4-----| 
A|--------------------2-----|--------------------------|--------------------------|--------------------------| 
E|--------------------------|--0-----------0-----------|--0-----------0-----------|--0-----------0-----------| 

Day by day I waited for your heart to mend... 
e|--------------------------|--------------------------|--------------------------|--------------------------| 
B|-----0-----0-----0-----0--|-----------0-----------0--|-----------0-----------0--|-----------0-----------0--| 
G|--1-----------------------|-----1-----------1--------|-----1-----------1--------|-----1-----------1--------| 
D|--------4-----1-----------|--------4-----------4-----|--------4-----------4-----|--------4-----------4-----| 
A|--------------------2-----|--------------------------|--------------------------|--------------------------| 
E|--------------------------|--2-----------2-----------|--4-----------2-----------|--0-----------0-----------| 

Chorus #2: 
Be my rose...                                           Growing in the cold... 
e|--------------------------|--------------------------|--------------------------|--------------------------| 
B|-----------0-----------0--|-----------4-----------0--|-----------0-----------0--|-----------2-----------0--| 
G|-----1-----------1--------|-----1-----------1--------|-----1-----------1--------|-----1-----------1--------| 
D|--------4-----------4-----|--------4-----------4-----|--------4-----------4-----|--------4-----------4-----| 
A|--------------------------|--------------------------|--------------------------|--------------------------| 
E|--4-----------2-----------|--0-----------0-----------|--0-----------0-----------|--2-----------2-----------| 

Be my light in the window at home... 
e|--------------------------|--------------------------|--------------------------|--------------------------| 
B|-----------0-----------0--|-----------4-----------0--|-----------2-----------0--|-----------0-----------0--| 
G|-----1-----------1--------|-----1-----------1--------|-----1-----------1--------|-----1-----------1--------| 
D|--------4-----------4-----|--------4-----------4-----|--------4-----------4-----|--------4-----------4-----| 
A|--------------------------|--2-----------2-----------|--------------------------|--------------------------| 
E|--2-----------2-----------|--------------------------|--2-----------2-----------|--0-----------0-----------| 

Be my Sun...                                            Rising in the sky... 
e|--------------------------|--------------------------|--------------------------|--------------------------| 
B|-----------0-----------0--|-----------4-----------0--|-----------0-----------0--|-----------2-----------0--| 
G|-----1-----------1--------|-----1-----------1--------|-----1-----------1--------|-----1-----------1--------| 
D|--------4-----------4-----|--------4-----------4-----|--------4-----------4-----|--------4-----------4-----| 
A|--------------------------|--------------------------|--------------------------|--------------------------| 
E|--4-----------2-----------|--0-----------0-----------|--0-----------0-----------|--2-----------2-----------| 

Be my time bomb lover tonight... 
e|--------------------------|--------------------------|--------------------------|--------------------------| 
B|-----------0-----------0--|-----------4-----------0--|-----------2-----------0--|-----------0-----------0--| 
G|-----1-----------1--------|-----1-----------1--------|-----1-----------1--------|-----1-----------1--------| 
D|--------4-----------4-----|--------4-----------4-----|--------4-----------4-----|--------4-----------4-----| 
A|--------------------------|--2-----------2-----------|--------------------------|--------------------------| 
E|--2-----------2-----------|--------------------------|--2-----------2-----------|--0-----------0-----------| 

BRIDGE #2: Repeat x2 
e|--------------------------|--------------------------| 
B|-----0-----0-----0-----0--|-----------0-----------0--| 
G|--1-----------------------|-----1-----------1--------| 
D|--------4-----1-----4-----|--------4----------4------| 
A|--------------------------|--------------------------| 
E|--------------------------|--4-----------4-----------| 

e|--------------------------|--------------------------| 
B|-----0-----0-----0-----0--|----------0-----------0---| 
G|--1-----------------------|----1-----------1---------| 
D|--------4-----1-----------|-------4-----------4------| 
A|--------------------2-----|--------------------------| 
E|--------------------------|--0----------0------------| 

e|--------------------------|--------------------------| 
B|-----0-----0-----0-----0--|-----------0-----------0--| 
G|--1-----------------------|-----1-----------1--------| 
D|--------4-----1-----------|--------4-----------4-----| 
A|--------------------2-----|--------------------------| 
E|--------------------------|--2-----------2-----------| 
               
e|--------------------------|--------------------------| 
B|-----------0-----------0--|-----------0-----------0--| 
G|-----1-----------1--------|-----1-----------1--------| 
D|--------4-----------4-----|--------4-----------4-----| 
A|--------------------------|--------------------------| 
E|--4-----------2-----------|--0-----------0-----------| 

Chorus #3: 
Be my rose...                                           Growing in the cold... 
e|--------------------------|--------------------------|--------------------------|--------------------------| 
B|-----------0-----------0--|-----------4-----------0--|-----------0-----------0--|-----------2-----------0--| 
G|-----1-----------1--------|-----1-----------1--------|-----1-----------1--------|-----1-----------1--------| 
D|--------4-----------4-----|--------4-----------4-----|--------4-----------4-----|--------4-----------4-----| 
A|--------------------------|--------------------------|--------------------------|--------------------------| 
E|--4-----------2-----------|--0-----------0-----------|--0-----------0-----------|--2-----------2-----------| 

Be my light in the window at home... 
e|--------------------------|--------------------------|--------------------------|--------------------------| 
B|-----------0-----------0--|-----------4-----------0--|-----------2-----------0--|-----------0-----------0--| 
G|-----1-----------1--------|-----1-----------1--------|-----1-----------1--------|-----1-----------1--------| 
D|--------4-----------4-----|--------4-----------4-----|--------4-----------4-----|--------4-----------4-----| 
A|--------------------------|--2-----------2-----------|--------------------------|--------------------------| 
E|--2-----------2-----------|--------------------------|--2-----------2-----------|--0-----------0-----------| 

Be my Sun...                                            Rising in the sky... 
e|--------------------------|--------------------------|--------------------------|--------------------------| 
B|-----------0-----------0--|-----------4-----------0--|-----------0-----------0--|-----------2-----------0--| 
G|-----1-----------1--------|-----1-----------1--------|-----1-----------1--------|-----1-----------1--------| 
D|--------4-----------4-----|--------4-----------4-----|--------4-----------4-----|--------4-----------4-----| 
A|--------------------------|--------------------------|--------------------------|--------------------------| 
E|--4-----------2-----------|--0-----------0-----------|--0-----------0-----------|--2-----------2-----------| 

Be my time bomb lover tonight... 
e|--------------------------|--------------------------|--------------------------|--------------------------| 
B|-----------0-----------0--|-----------4-----------0--|-----------2-----------0--|-----------0-----------0--| 
G|-----1-----------1--------|-----1-----------1--------|-----1-----------1--------|-----1-----------1--------| 
D|--------4-----------4-----|--------4-----------4-----|--------4-----------4-----|--------4-----------4-----| 
A|--------------------------|--2-----------2-----------|--------------------------|--------------------------| 
E|--2-----------2-----------|--------------------------|--2-----------2-----------|--0-----------0-----------| 

OUTRO: 
e|--------------------------|--------------------------| 
B|-----0-----0-----0-----0--|-----------0-----------0--| 
G|--1-----------------------|-----1-----------1--------| 
D|--------4-----1-----4-----|--------4----------4------| 
A|--------------------------|--------------------------| 
E|--------------------------|--4-----------4-----------| 

e|--------------------------|--------------------------| 
B|-----0-----0-----0-----0--|----------0-----------0---| 
G|--1-----------------------|----1-----------1---------| 
D|--------4-----1-----------|-------4-----------4------| 
A|--------------------2-----|--------------------------| 
E|--------------------------|--0----------0------------| 

e|--------------------------|--------------------------| 
B|-----0-----0-----0-----0--|-----------0-----------0--| 
G|--1-----------------------|-----1-----------1--------| 
D|--------4-----1-----------|--------4-----------4-----| 
A|--------------------2-----|--------------------------| 
E|--------------------------|--2-----------2-----------| 
               
e|--------------------------|--------------------------| 
B|-----------0-----------0--|--0-----------------------| 
G|-----1-----------1--------|--1-----------------------| 
D|--------4-----------4-----|--4-----------------------| 
A|--------------------------|--------------------------| 
E|--4-----------2-----------|--0-----------------------| 

************************************ 

| /   slide up 
| \   slide down 
| h   hammer-on 
| p   pull-off 
| ~   vibrato 
| +   harmonic 
| x   Mute note 
| b   Bend 
| pb  Pre-bend 
| br  Bend release 
| pbr Pre-bend release 
| brb Bend release bend 

************************************ 
  

top 5 | benjamin francis leftwich
top rock alternativo
Outras músicas do artista letras do(a) Benjamin Francis Leftwich
Top cifras »Top artistas »
Petaxxon Comunicação Online
Cifras.com.br - Melhor e mais completo site de cifras e tablaturas do Brasil
Mais de 1 milhão de acordes de músicas cadastradas desde 2003
As informações contidas no nosso site são colaborações de seus usuários e podem conter erros, sendo assim, não nos responsabilizamos sobre nenhuma destas.
close
menos
mais
close
Cor dos acordes:

Cor da letra:

 

save
close
close
 
redimensionar