Cifras e Tablaturas
Bernhoft

Bernhoft

I Believe In All The Things You Dont

Cifras Cancelar Versão de Impressão
cifras

Bernhoft - I Believe In All The Things You Dont

fixar na tela  
Exibindo: vídeo-aula ver clipes redimensionar

Tom:

  
Intro 

e|----------------------------------------------------------0--------| 
B|---------3--------------3------------------3-----------------3-----| 
G|-----5------5---------5----5-----------5------5---------5------5---| 2x 
D|---5---5------5-----5--------5-------5---5------5-----5----------5-| 
A|-0----------------0------------0---0----------------0--------------| 
E|-------------------------------------------------------------------| 


verse 1 

e|-------------------------------------------------------------------| 
B|---------3--------------3------------------3--------------3--------| 
G|-----5------5---------5----5-----------5------5---------5----5-----|  
D|---5---5------5-----5--------5-------5---5------5-----5--------5---| 
A|-0----------------0------------0---0----------------0------------0-| 
E|-------------------------------------------------------------------| 

   I believe in all the things you don't 

e|-------------------------------------------------------------------| 
B|---------1--------------1------------------1--------------3--1p0---| 
G|-----4------4---------4----4-----------4------4---------0--------2-| 
D|---0---0------0-----0--------0-------0---0------0-----2------------| 
A|-------------------------------------------------------------------| 
E|-3----------------3------------3---3----------------0--------------| 

                            Try and get around me 
    
e|-------------------------------------------------------------------| 
B|---------3--------------3------------------3--------------3--------| 
G|-----5------5---------5----5-----------5------5---------5----5-----|  
D|---5---5------5-----5--------5-------5---5------5-----5--------5---| 
A|-0----------------0------------0---0----------------0------------0-| 
E|-------------------------------------------------------------------| 

   Build your disbeliefs on solid ground                       See it 
   
e|-------------------------------------------------------------------| 
B|---------1--------------1------------------1--------------3--1p0---| 
G|-----4------4---------4----4-----------4------4---------0--------2-| 
D|---0---0------0-----0--------0-------0---0------0-----2------------| 
A|-------------------------------------------------------------------| 
E|-3----------------3------------3---3----------------0--------------| 

   smolder,                                  it all falls down 

e|-------------------------------------------------------------------| 
B|---------0--------------0------------------0--------------0--------| 
G|-----0------0---------0----0-----------0------0---------0----0-----| 
D|---2---2------2-----2--------2-------2---2------2-----2--------2---| 
A|-4----------------4------------4---3----------------3------------3-| 
E|-------------------------------------------------------------------| 

   I see open spaces where you won't                          You  

e|-------------------------------------------------------------------| 
B|---------3---------------------x-----------------------------------| 
G|-----0------0------------------x-----------------------------------| 
D|---4---4------4----------------x-----------------------------------| 
A|-5----------------5------------x-----------------------------------| 
E|-------------------------------------------------------------------| 

   can't... 

Chorus 

e|-------------------------------------------------------------------| 
B|---------3----------------3----------------3--------------3--------| 
G|-----5------5---------5------5---------5------5---------5----5-----|  
D|---5---5------5-----5---5------5-----5---5------5-----5--------5---| 
A|-0----------------0----------------0----------------0------------0-| 
E|-------------------------------------------------------------------| 

   Who your gonna talk to            Who you gonna listen to 

e|-------------------------------------------------------------------| 
B|---------1--------------1------------------1----------------1------| 
G|-----4------4---------4----4-----------4------4---------4------4---| 
D|---0---0------0-----0--------0-------0---0------0-----0---0------0-|  
A|-------------------------------------------------------------------| 
E|-3----------------3------------3---3----------------3--------------| 

                                                       You can't rattle the  

e|-------------------------------------------------------------------| 
B|---------3--------------3------------------3--------------3--------| 
G|-----5------5---------5----5-----------5------5---------5----5-----|  
D|---5---5------5-----5--------5-------5---5------5-----5--------5---| 
A|-0----------------0------------0---0----------------0------------0-| 
E|-------------------------------------------------------------------| 

   cage                               Don't see no bars    How do you 

e|-------------------------------------------------------------------| 
B|---------1--------------1------------------1----------------1------| 
G|-----4------4---------4----4-----------4------4---------4------4---| 
D|---0---0------0-----0--------0-------0---0------0-----0---0------0-|  
A|-------------------------------------------------------------------| 
E|-3----------------3------------3---3----------------3--------------| 

  send a message without knowing who you are          You dont rock no 

e|-------------------------------------------------------------------| 
B|---------3--------------3------------------5--------------5--------| 
G|-----5------5---------5----5-----------4------4---------4----4-----|  
D|---5---5------5-----5--------5-------5---5------5-----5--------5---| 
A|-0----------------0------------0---3----------------3------------3-| 
E|-------------------------------------------------------------------| 

   boat              You don't open no doors                 You cut your 

e|---------2--------------2------------------2--------------2--------| 
B|-----3------3---------3----3-----------3------3---------3----3-----| 
G|---0---0------0-----0--------0-------2---2------2-----2--------2---|  
D|-----------------------------------0----------------0------------0-| 
A|-2----------------2------------2-----------------------------------| 
E|-------------------------------------------------------------------| 

   arms off at the elbows thinking   all is lost        You couldn't be more 

e|-------------------------------------------------------------------| 
B|---------3--------------3------------------3--------------3--------| 
G|-----5------5---------5----5-----------5------5---------5----5-----|  
D|---5---5------5-----5--------5-------5---5------5-----5--------5---| 
A|-0----------------0------------0---0----------------0------------0-| 
E|-------------------------------------------------------------------| 

   wrong.... 

e|-------------------------------------------------------------------| 
B|---------1--------------1------------------1--------------3--1p0---| 
G|-----4------4---------4----4-----------4------4---------0--------2-| 
D|---0---0------0-----0--------0-------0---0------0-----2------------| 
A|-------------------------------------------------------------------| 
E|-3----------------3------------3---3----------------0--------------| 



verse 2 
    
e|-------------------------------------------------------------------| 
B|---------3--------------3------------------3--------------3--------| 
G|-----5------5---------5----5-----------5------5---------5----5-----|  
D|---5---5------5-----5--------5-------5---5------5-----5--------5---| 
A|-0----------------0------------0---0----------------0------------0-| 
E|-------------------------------------------------------------------| 

   You have lost so much trying to find 

e|-------------------------------------------------------------------| 
B|---------1--------------1------------------1--------------3--1p0---| 
G|-----4------4---------4----4-----------4------4---------0--------2-| 
D|---0---0------0-----0--------0-------0---0------0-----2------------| 
A|-------------------------------------------------------------------| 
E|-3----------------3------------3---3----------------0--------------| 

                            All your ways around 
    
e|-------------------------------------------------------------------| 
B|---------3--------------3------------------3--------------3--------| 
G|-----5------5---------5----5-----------5------5---------5----5-----|  
D|---5---5------5-----5--------5-------5---5------5-----5--------5---| 
A|-0----------------0------------0---0----------------0------------0-| 
E|-------------------------------------------------------------------| 

   Independent, so dependent on                                re- 
    
e|-------------------------------------------------------------------| 
B|---------1--------------1------------------1--------------3--1p0---| 
G|-----4------4---------4----4-----------4------4---------0--------2-| 
D|---0---0------0-----0--------0-------0---0------0-----2------------| 
A|-------------------------------------------------------------------| 
E|-3----------------3------------3---3----------------0--------------| 

   sistance                                    Against who? 

e|-------------------------------------------------------------------| 
B|---------0--------------0------------------0--------------0--------| 
G|-----0------0---------0----0-----------0------0---------0----0-----| 
D|---2---2------2-----2--------2-------2---2------2-----2--------2---| 
A|-4----------------4------------4---3----------------3------------3-| 
E|-------------------------------------------------------------------| 

   I see outsides where you          won't                     You just  


Start strumming: 

e|--0----------------------------0-----------------------------------| 
B|--3---------0------------------3-----------------------------------| 
G|--0---------7------------------5-----------------------------------| 
D|--4---------5------------------5-----------------------------------| 
A|--5---------7------------------0-----------------------------------| 
E|-------------------------------------------------------------------| 

    can't you can't   Rattle the cage              Don't see no bars    How do you 

e|-------------------------------------------------------------------| 
B|--1----------------------------3-----------------------------------| 
G|--4----------------------------0-----------------------------------| 
D|--0----------------------------0-----------------------------------| 
A|--x----------------------------2-----------------------------------| 
E|--3----------------------------------------------------------------| 

   send a message without knowing who you are                     Don't rock no 

e|--0----------------------------3-----------------------------------| 
B|--3----------------------------5-----------------------------------| 
G|--5----------------------------4-----------------------------------| 
D|--5----------------------------5-----------------------------------| 
A|--0----------------------------3-----------------------------------| 
E|-------------------------------3-----------------------------------| 

    boat       You don't open no doors                           You cut your  

e|--2----------------------------2-----------------------------------| 
B|--3----------------------------3-----------------------------------| 
G|--0----------------------------2-----------------------------------| 
D|--x----------------------------0-----------------------------------| 
A|--2----------------------------x-----------------------------------| 
E|-------------------------------2-----------------------------------| 

   arms off at the elbows thinkin all is lost                    You couldn't be more 

e|------------------------------------------5--0----------------5--0-| 
B|--1--3--5--7-------------------------0----0--8-----------0----0--8-| 
G|--0--0--0--0-------------------------7----7--7-----------7----7--7-| 
D|--2--0--0--0-------------------------5----0--0-----------0----0--0-| 
A|--0--2--3--5-------------------------7----7--7-----------7----7--7-| 
E|-------------------------------0-0-0---------------0-0-0-----------| 

    wrong.... 

e|------------------------------------------5--0----------------5--0-| 
B|--3----3--5------3----3--5-----------0----0--8-----------0----0--8-| 
G|--0----0--0------0----0--0-----------7----7--7-----------7----7--7-| 
D|--2----4--5------2----4--5-----------5----0--0-----------0----0--0-| 
A|--0----0--0------0----0--0-----------7----7--7-----------7----7--7-| 
E|-------------------------------0-0-0---------------0-0-0-----------| 

                      Oh, you couldn't be more wrong 

e|----------------------------------| 
B|--3----3--5------3-----3-----5----| 
G|--0----0--0------0-----0-----0----| 
D|--2----4--5------2-----4-----5----| 
A|--0----0--0------0-----0-----0----| 
E|----------------------------------| 

                  Who you gonna listen to  

e|----------------------------------------3--2--------------3-------| 
B|--0----------------------------3-----0--0--0-----3-----0--0-------| 
G|--0----------------------------4-----4--4--4-----4-----4--4-------| 
D|--2----------------------------4-----4--4--4-----4-----4--4-------| 
A|--3----------------------------0-----5--5--5-----0-----5--5-------| 
E|-------------------------------x-----------------x----------------| 
  
    Who you gonna talk to                                 Who you gonna 

e|---------------0----------------------------0--2--0---------------| 
B|--0------------0---------------0------------0--0--0---------------| 
G|--0------------0---------------0------------0--0--0---------------| 
D|--2------------0---------------2------------0---------------------| 
A|--3------------x---------------3------------x---------------------| 
E|---------------3----------------------------3------------3\4------| 

    talk to 

e|--0---------------------------------------------------0-----------| 
B|--3--------------3---3-----------------3-----------------3--------| 
G|--5--------------------5-----------5------5---------5------5------| 
D|--5----------------5-----5-------5---5------5-----5----------5----| 
A|--0------------0-----------0---0----------------0-----------------| 
E|------------------------------------------------------------------| 


Outro 

e|----------------------------------------------------------0--------| 
B|---------3--------------3------------------3-----------------3-----| 
G|-----5------5---------5----5-----------5------5---------5------5---| 3x 
D|---5---5------5-----5--------5-------5---5------5-----5----------5-| 
A|-0----------------0------------0---0----------------0--------------| 
E|-------------------------------------------------------------------| 


************************************ 

| \   slide down 
| p   pull-off 
| x   Mute note 

************************************ 
  

top 5 | bernhoft
top pop music
Outras músicas do artista letras do(a) Bernhoft
Top cifras »Top artistas »
Petaxxon Comunicação Online
Cifras.com.br - Melhor e mais completo site de cifras e tablaturas do Brasil
Mais de 1 milhão de acordes de músicas cadastradas desde 2003
As informações contidas no nosso site são colaborações de seus usuários e podem conter erros, sendo assim, não nos responsabilizamos sobre nenhuma destas.
close
menos
mais
close
Cor dos acordes:

Cor da letra:

 

save
close
close
 
redimensionar