Cifras e Tablaturas
Betontod

Betontod

Küss Mich

Cifras Cancelar Versão de Impressão

Betontod - Küss Mich

Tom: C#

  			 
   Intro: Guitar 1 lead 
C#|--------------------------|------------------------------------------------------------------------------| 
G#|--13-13-13-13p11-11\9-9---|----------------9-11-14-13-9-----9-11----13-13-13-13-13p11--------------------| 
E |--------------------------|----10-10-10-10-------------------------------------------13------------------| 
B |--------------------------|------------------------------------------------------------------------------| 
F#|--------------------------|------------------------------------------------------------------------------| 
C#|--------------------------|------------------------------------------------------------------------------| 

C#|--------------------------------------------------------------------------------------------------------| 
G#|-13-13-13-13-13p11--11~~~~------------------------------------------------------------------------------| 
E |------------------13------------------------------------------------------------------------------------| 
B |--------------------------------------------------------------------------------------------------------| 
F#|--------------------------------------------------------------------------------------------------------| 
C#|--------------------------------------------------------------------------------------------------------| 

C#|---------------------------|-----------------------------|------------------------------------------------| 
G#|--13-13-13-13p11-11\9-9----|---------------9-11-14-13-9--|---9-11----13-13-13-13-13p11--------------------| 
E |---------------------------|---10-10-10-10---------------|----------------------------13------------------| 
B |---------------------------|-----------------------------|------------------------------------------------| 
F#|---------------------------|-----------------------------|------------------------------------------------| 
C#|---------------------------|-----------------------------|------------------------------------------------| 

C#|----------------------------|----------------------------------------------------------------------------| 
G#|-13-13-13-13-13p11--11~~~~--|----------------------------------------------------------------------------| 
E |------------------13--------|--12-13~--------------------------------------------------------------------| 
B |----------------------------|----------------------------------------------------------------------------| 
F#|----------------------------|----------------------------------------------------------------------------| 
C#|----------------------------|----------------------------------------------------------------------------| 

  Intro Guitar 2 rhythm 
C#|---------------------|-----------------------------------------------------------------------| 
G#|---------------------|-----------------------------------------------------------------------| 
E |---------------------|---6-6-6-6----6-6-6-6--------------------------------------------------| 
B |3-3-3-3---3-3-3-3----|---6-6-6-6----6-6-6-6----6-6-6-6-----6-6-6-6----5-5-5-5----play-it-x2--| 
F#|3-3-3-3---3-3-3-3----|---4-4-4-4----4-4-4-4----6-6-6-6-----6-6-6-6----5-5-5-5----------------| 
C#|1-1-1-1---1-1-1-1----|-------------------------4-4-4-4-----4-4-4-4----3-3-3-3----------------| 

   Verse Guitar1 
C#|------------------------|---------------------------------------------------------------------------------| 
G#|------------------------|---13-13-11-11-------------------------------------16-16-13-13-------------------| 
E |13-13-12-12----x3times--|---------------12------13-13-12-12----x2times------------------13----12-12-13-13-| 
B |------------13----------|-----------------------------------13--------------------------------------------| 
F#|------------------------|---------------------------------------------------------------------------------| 
C#|------------------------|---------------------------------------------------------------------------------| 

C#|---------------------------------------------|------------------------------------------------------------| 
G#|--------------------------13-13-11-11--------|------------------------------------------------------------| 
E |13-13-12-12----x3times-----------------12----|------13-13-12-12---------13t-12t-----(t=tremolo)-----------| 
B |------------13-------------------------------|------------------13-------------13t------------------------| 
F#|---------------------------------------------|------------------------------------------------------------| 
C#|---------------------------------------------|------------------------------------------------------------| 

Verse Guitar2 (1st time) 
C#|------------------------------|---------------------------------------------------------------------| 
G#|------------------------------|---------------------------------------------------------------------| 
E |---6-6--6-6-6--6-6-6--6-6-6---|--6-8-8--8-8-8---8-8-8--8-8-8----8-----------------------------------| 
B |---6-6--6-6-6--6-6-6--6-6-6---|--6-8-8--8-8-8---8-8-8--8-8-8----8-3-3--3-3-3--3-3-3--3-3-3---3-6-6--| 
F#|---4-4--4-4-4--4-4-4--4-4-4---|--4-6-6--6-6-6---6-6-6--6-6-6----6-3-3--3-3-3--3-3-3--3-3-3---3-6-6--| 
C#|---x-x--x-x-x--x-x-x--x-x-x---|--x-x-x--x-x-x---x-x-x--x-x-x----x-1-1--1-1-1--1-1-1--1-1-1---1-4-4--| 
   . .  . . .  . . .  . . .         . . .  . . .   . . .  . . .    . . .  . . .  . . .  . . .   . . . 

C#|------------------------| 
G#|------------------------| 
E |------------------------| 
B |---6-6-6--6-6-6--6-6-6--| 
F#|---6-6-6--6-6-6--6-6-6--| 
C#|---4-4-4--4-4-4--4-4-4--| 
   . . .  . . .  . . . 

Verse Guitar2 (2nd time) 
C#|-----------------------------|----------------------------------------------------------------------------| 
G#|-----------------------------|----------------------------------------------------------------------------| 
E |---6-6--6-6-6--6-6-6--6-6-6--|---6-8-8--8-8-8---8-8-8--8-8-8----8-----------------------------------------| 
B |-6-6-6--6-6-6--6-6-6--6-6-6--|---6-8-8--8-8-8---8-8-8--8-8-8----8-3-3--3-3-3--3-3-3--3-3-3---3----6t-5t---| 
F#|-6-4-4--4-4-4--4-4-4--4-4-4--|---4-6-6--6-6-6---6-6-6--6-6-6----6-3-3--3-3-3--3-3-3--3-3-3---3----------6t| 
C#|-4-x-x--x-x-x--x-x-x--x-x-x--|---x-x-x--x-x-x---x-x-x--x-x-x----x-1-1--1-1-1--1-1-1--1-1-1---1------------| 
 . . .  . . .  . . .  . . .         . . .  . . .   . . .  . . .    . . .  . . .  . . .  . . .   . 

   Chorus Guitar 1+2 (the play the same) 
C#|------------------------|---------------------------------------------------------------------------------| 
G#|------------------------|---------------------------------------------------------------------------------| 
E |---6-6---6-6-6---6--6-6-|--6-6-6--6-6---8/10--10-10-10--10--10-10----10-10-10---10-10---------------------| 
B |---6-6---6-6-6---6--6-6-|--6-6-6--6-6---8/10--10-10-10--10--10-10----10-10-10---10-10---------------------| 
F#|---4-4---4-4-4---4--4-4-|--4-4-4--4-4---6/8---8--8--8---8---8--8-----8--8--8----8-8-----------------------| 
C#|------------------------|---------------------------------------------------------------------------------| 

C#|------------------------|---------------------------------------------------| 
G#|------------------------|---------------------------------------------------| 
E |---3-3---3-3-3---3--3-3-|--3-3-3--3-5---6-6---6-6-6---6---6-6---6-6--6-5/3--| 
B |---3-3---3-3-3---3--3-3-|--3-3-3--3-5---6-6---6-6-6---6---6-6---6-6--6-5/3--| 
F#|---1-1---1-1-1---1--1-1-|--1-1-1--1-3---4-4---4-4-4---4---4-4---4-4--4-3/1 -| 
C#|------------------------|---------------------------------------------------| 

C#|------------------------|------------------------------------------------------------| 
G#|------------------------|------------------------------------------------------------| 
E |---6-6---6-6-6---6--6-6-|--6-6-6--6-6---8/10--10-10-10--10--10-10----10-10-10--10-10--| 
B |---6-6---6-6-6---6--6-6-|--6-6-6--6-6---8/10--10-10-10--10--10-10----10-10-10--10-10--| 
F#|---4-4---4-4-4---4--4-4-|--4-4-4--4-4---6/8---8--8--8---8---8--8-----8--8--8---8-8---| 
C#|------------------------|------------------------------------------------------------| 

C#|----------------------------------| 
G#|----------------------------------| 
E |---3-3---3-3-3---3--3-3---3-3-----| 
B |---3-3---3-3-3---3--3-3---3-3--6--| 
F#|---1-1---1-1-1---1--1-1---1-1--6--| 
C#|-------------------------------4--| 

   Chorus Guitar 2 
C#|-------------------|-----------------------------------------------------------| 
G#|-------------------|-----------------------------------------------------------| 
E |-------------------|-----6-6-6-6----6-6-6-6------------------------------------| 
B |3-3-3-3---3-3-3-3--|-----6-6-6-6----6-6-6-6----6-6-6-6-----6-6-6-6----5-5-5-5--| 
F#|3-3-3-3---3-3-3-3--|-----4-4-4-4----4-4-4-4----6-6-6-6-----6-6-6-6----5-5-5-5--| 
C#|1-1-1-1---1-1-1-1--|---------------------------4-4-4-4-----4-4-4-4----3-3-3-3--| 

Chorus Guitar 1 
C#|----------------------------------------|-----------------------------------------------------------------| 
G#|----------------------------------------|-----------------------------------------------------------------| 
E |--13-13--------15-15--------17-17-------|--15-15----------------------------------------------------------| 
B |--------15-15--------15-15--------15-15-|--------15-15-------2times---------------------------------------| 
F#|----------------------------------------|-----------------------------------------------------------------| 
C#|----------------------------------------|-----------------------------------------------------------------| 

C#|-------------------------------------------------|------------------------------------------------------| 
G#|-------------------------------------------------|------------------------------------------------------| 
E |--17-17-------18-18-------20-20-------18---------|----15-15-------17-17--------18-18-------17-17--------| 
B |--------15-15-------15-15-------15-15----15-15---|----------15-15-------15-15--------15-15-------15-15--| 
F#|-------------------------------------------------|------------------------------------------------------| 
C#|-------------------------------------------------|------------------------------------------------------| 

   Verse Guitar1 
C#|------------------------|---------------------------------------------------------------------------------| 
G#|------------------------|---13-13-11-11-------------------------------------16-16-13-13-------------------| 
E |13-13-12-12----x3times--|---------------12------13-13-12-12----x2times------------------13----12-12-13-13-| 
B |------------13----------|-----------------------------------13--------------------------------------------| 
F#|------------------------|---------------------------------------------------------------------------------| 
C#|------------------------|---------------------------------------------------------------------------------| 

   Verse Guitar2 (1st time) 
C#|-----------------------------|----------------------------------------------------------------------| 
G#|-----------------------------|----------------------------------------------------------------------| 
E |---6-6--6-6-6--6-6-6--6-6-6--|---6-8-8--8-8-8---8-8-8--8-8-8----8-----------------------------------| 
B |---6-6--6-6-6--6-6-6--6-6-6--|---6-8-8--8-8-8---8-8-8--8-8-8----8-3-3--3-3-3--3-3-3--3-3-3---3-6-6--| 
F#|---4-4--4-4-4--4-4-4--4-4-4--|---4-6-6--6-6-6---6-6-6--6-6-6----6-3-3--3-3-3--3-3-3--3-3-3---3-6-6--| 
C#|---x-x--x-x-x--x-x-x--x-x-x--|---x-x-x--x-x-x---x-x-x--x-x-x----x-1-1--1-1-1--1-1-1--1-1-1---1-4-4--| 
   . .  . . .  . . .  . . .         . . .  . . .   . . .  . . .    . . .  . . .  . . .  . . .   . . . 

C#|------------------------| 
G#|------------------------| 
E |------------------------| 
B |---6-6-6--6-6-6--6-6-6--| 
F#|---6-6-6--6-6-6--6-6-6--| 
C#|---4-4-4--4-4-4--4-4-4--| 
   . . .  . . .  . . . 

   Verse Guitar 1+2 
C#|------------|---------------------------| 
G#|------------|---------------------------| 
E |------------|---------------------------| 
B |-8---10--11-|--10/11-3--5-----6t-5t-----| 
F#|-8---10--11-|--10/11-3--5-----------6t--| 
C#|-6---8---9--|---8/9--1--3---------------| 

   Chorus Guitar 1+2 (they play the same) 
C#|------------------------|------------------------------------------------------------| 
G#|------------------------|------------------------------------------------------------| 
E |---6-6---6-6-6---6--6-6-|--6-6-6--6-6---8/10--10-10-10--10--10-10----10-10-10---10-10--| 
B |---6-6---6-6-6---6--6-6-|--6-6-6--6-6---8/10--10-10-10--10--10-10----10-10-10---10-10--| 
F#|---4-4---4-4-4---4--4-4-|--4-4-4--4-4---6/8---8--8--8---8---8--8-----8--8--8----8--8---| 
C#|------------------------|------------------------------------------------------------| 

C#|------------------------|---------------------------------------------------| 
G#|------------------------|---------------------------------------------------| 
E |---3-3---3-3-3---3--3-3-|--3-3-3--3-5---6-6---6-6-6---6---6-6---6-6---------| 
B |---3-3---3-3-3---3--3-3-|--3-3-3--3-5---6-6---6-6-6---6---6-6---6-6---------| 
F#|---1-1---1-1-1---1--1-1-|--1-1-1--1-3---4-4---4-4-4---4---4-4---4-4--4-3/1 -| 
C#|------------------------|---------------------------------------------------| 

C#|------------------------|------------------------------------------------------------| 
G#|------------------------|------------------------------------------------------------| 
E |---6-6---6-6-6---6--6-6-|--6-6-6--6-6---8/10--10-10-10--10--10-10----10-10-10---10-10--| 
B |---6-6---6-6-6---6--6-6-|--6-6-6--6-6---8/10--10-10-10--10--10-10----10-10-10---10-10--| 
F#|---4-4---4-4-4---4--4-4-|--4-4-4--4-4---6/8---8--8--8---8---8--8-----8--8--8----8--8---| 
C#|------------------------|------------------------------------------------------------| 

C#|------------------------------------------| 
G#|------------------------------------------| 
E |---3-3---3-3-3---3--3-3---3-3-------------| 
B |---3-3---3-3-3---3--3-3---3-3--6-6---5-5--| 
F#|---1-1---1-1-1---1--1-1---1-1--6-6---5-5--| 
C#|-------------------------------4-4---3-3--| 

   LAST Chorus Guitar 1+2 (the play the same) 
C#|-------------------------------------|-----------------------------------------------| 
G#|-------------------------------------|-----------------------------------------------| 
E |---6-6---6-6-6---6--6-6---6-6-6--6-6-|--8/10--10-10-10--10--10-10----10-10-10---10-10--| 
B |---6-6---6-6-6---6--6-6---6-6-6--6-6-|--8/10--10-10-10--10--10-10----10-10-10---10-10--| 
F#|---4-4---4-4-4---4--4-4---4-4-4--4-4-|--6/8---8--8--8---8---8--8-----8--8--8----8--8---| 
C#|-------------------------------------|-----------------------------------------------| 

C#|-------------------------------------|--------------------------------------| 
G#|-------------------------------------|--------------------------------------| 
E |---3-3---3-3-3---3--3-3---3-3-3--3-5-|--6-6---6-6-6---6---6-6---6-6---------| 
B |---3-3---3-3-3---3--3-3---3-3-3--3-5-|--6-6---6-6-6---6---6-6---6-6---------| 
F#|---1-1---1-1-1---1--1-1---1-1-1--1-3-|--4-4---4-4-4---4---4-4---4-4--4-3/1 -| 
C#|-------------------------------------|--------------------------------------| 

C#|-------------------------------------|-----------------------------------------------| 
G#|-------------------------------------|-----------------------------------------------| 
E |---6-6---6-6-6---6--6-6---6-6-6--6-6-|--8/10--10-10-10--10--10-10----10-10-10---10-10-| 
B |---6-6---6-6-6---6--6-6---6-6-6--6-6-|--8/10--10-10-10--10--10-10----10-10-10---10-10-| 
F#|---4-4---4-4-4---4--4-4---4-4-4--4-4-|--6/8---8--8--8---8---8--8-----8--8--8----8---8-| 
C#|-------------------------------------|-----------------------------------------------| 

C#|-----------------------------------------------| 
G#|-----------------------------------------------| 
E |---3-3---3-3-3---3--3-3---3-3------------------| 
B |---3-3---3-3-3---3--3-3---3-3--6---------------| 
F#|---1-1---1-1-1---1--1-1---1-1--6---------------| 
C#|-------------------------------4----pickslide--| 

Last guitar 2 
C#|--------------------|---------------------------------------------------------------------------------| 
G#|--------------------|---------------------------------------------------------------------------------| 
E |--------------------|----6-6-6-6----6-6-6-6-----------------------------------------------------------| 
B |3-3-3-3---3-3-3-3---|----6-6-6-6----6-6-6-6----6-6-6-6-----6-6-6-6----5-5-5-5----play-it-x-2---END-3--| 
F#|3-3-3-3---3-3-3-3---|----4-4-4-4----4-4-4-4----6-6-6-6-----6-6-6-6----5-5-5-5----------------------3--| 
C#|1-1-1-1---1-1-1-1---|--------------------------4-4-4-4-----4-4-4-4----3-3-3-3----------------------1--| 

C#|----------------------------------------|----------------------------| 
G#|----------------------------------------|----------------------------| 
E |--13-13--------15-15--------17-17-------|--15-15---------------------| 
B |--------15-15--------15-15--------15-15-|--------15-15-------2times--| 
F#|----------------------------------------|----------------------------| 
C#|----------------------------------------|----------------------------| 

C#|------------------------------------------------|---------------------------------------------------------| 
G#|------------------------------------------------|---------------------------------------------------------| 
E |--17-17-------18-18-------20-20-------18--------|----15-15-------17-17--------18-18-------17-17-----END-13| 
B |--------15-15-------15-15-------15-15----15-15--|----------15-15-------15-15--------15-15-------15-15-----| 
F#|------------------------------------------------|---------------------------------------------------------| 
C#|------------------------------------------------|---------------------------------------------------------| 



************************************ 

| p  Pull-off 
| \  Slide down 
| ~  Vibrato 
| x  Dead note 
| t  Tapping 
| .  Staccato 
| /  Slide up 

************************************ 
    	
fixar
fixar inscrever-se

enviado porenviado por: tamamoreira
cifra enviadaCorrigida por: sem correções
logo top cifrasComente
ico música do artistaMúsicas deste artista
ico curtiuCurtiu?
ico destaqueDestaque
Petaxxon Comunicação Online

Cifras.com.br - Melhor e mais completo site de cifras e tablaturas do Brasil Mais de 1 milhão de acordes de músicas cadastradas desde 2003
As informações contidas no nosso site são colaborações de seus usuários e podem conter erros, sendo assim, não nos responsabilizamos sobre nenhuma destas.

close
menos
mais
close
Cor dos acordes:

Cor da letra:

close
Alinhar acordes a direita Alinhar acordes a esquerda Alinhar acordes em baixo Alinhar acordes no topo
close
  Mostrar todos os acordes Esconder acordes muito fáceis Esconder acordes fáceis Esconder acordes intermediários
redimensionar
glossário