Cifras e Tablaturas
Billy Gibbons

Billy Gibbons

Treat Her Right

Cifras Cancelar Versão de Impressão

Billy Gibbons - Treat Her Right

Tom:

  			Billy Gibbons & the BFG’s  – Treat her right - Perfectamondo 

0:10  Intro         
G|---------------------------------------------| 
D|---------------------------------------------| 
A|-------------1-3--1-3--------3-5--1-3--------|      
D|-5--5--5--5------------5--5------------5--5/-|   

0:30  Couplet     
G|------------------------------------------------------------------------------| 
D|------------------------------------------------------------------------------| 
A|-------------------------1-3----1-3-1-3-------------3-5------5-3--------------|      
D|-5--0-3-2-5--5--0-3-2-5-------5---------5--0-3-2-5-------5-8------5--0-3-2-5/-|   

0:51  Couplet     
G|------------------------------------------------------------------------------| 
D|------------------------------------------------------------------------------| 
A|-------------------------1-3----1-3-1-3-------------3-5------5-3--------------|      
D|-5--0-3-2-5--5--0-3-2-5-------5---------5--0-3-2-5-------5-8------5--0-3-2-5/-|   

1:13  Couplet     
G|------------------------------------------------------------------------------| 
D|------------------------------------------------------------------------------| 
A|-------------------------1-3----1-3-1-3-------------3-5------5-3--------------|      
D|-5--0-3-2-5--5--0-3-2-5-------5---------5--0-3-2-5-------5-8------5--0-3-2-5/-|   

1:36  Solo     
G|-----------------------------------------------------------| 
D|-----------------------------------------------------------| 
A|----1-3--1----1----1-3--6-3--6----1----1-5--8-3--6-----1---|      
D|-5---------5----5--------------5----5---------------5----5-|   

G|-----------------------------------------------------------| 
D|-----------------------------------------------------------| 
A|----1-3--1----1----1-3--6-3--6----1----1-5--8-3--6-----1---|      
D|-5---------5----5--------------5----5---------------5----5-| 



************************************ 

| /  Slide down 

************************************ 
    	
fixar
fixar inscrever-se

enviado porenviado por: ang-letra
cifra enviadaCorrigida por: sem correções
logo top cifrasComente
ico música do artistaMúsicas deste artista
ico curtiuCurtiu?
ico destaqueDestaque
Petaxxon Comunicação Online

Cifras.com.br - Melhor e mais completo site de cifras e tablaturas do Brasil Mais de 1 milhão de acordes de músicas cadastradas desde 2003
As informações contidas no nosso site são colaborações de seus usuários e podem conter erros, sendo assim, não nos responsabilizamos sobre nenhuma destas.

close
menos
mais
close
Cor dos acordes:

Cor da letra:

close
Alinhar acordes a direita Alinhar acordes a esquerda Alinhar acordes em baixo Alinhar acordes no topo
close
  Mostrar todos os acordes Esconder acordes muito fáceis Esconder acordes fáceis Esconder acordes intermediários
redimensionar
glossário