Cifras e Tablaturas
Bläck Fööss

Bläck Fööss

Bye Bye My Love

Cifras Cancelar Versão de Impressão

Bläck Fööss - Bye Bye My Love

Tom: C

  			Intro 
   C                     G                              +       +          C             + 
E|------0----1----2----|-3--------------2----|-1------------1--p0--------|------------------------| 
B|---------------------|---------------------|----------------------3----|-1----------------------| 
G|---------------------|---------------------|----------0----------------|---------------2--------| 
D|------2---------0----|------0---------0----|------0---------------0----|------2------------3----| 
A|-3---------3---------|-----------2---------|--------------2------------|-3----------------------| 
E|---------------------|-3-------------------|-3-------------------------|-----------1------------| 

Chorus1stVoice 
   C                     G             +       +                                              + 
E|---------------------|---------------------------|---------------------|------------------------| 
B|---------------------|-0-------------0-----------|---------------------|-0----0----0------------| 
G|------0----2----3----|-------------------3---2---|---------------------|----------------3---2---| 
D|------2---------0----|------0------------0-------|------0---------0----|------0---------0-------| 
A|-3---------3---------|-----------2---------------|-----------2---------|-----------2------------| 
E|---------------------|-3-------------------------|-3-------------------|-3----------------------| 
        Bye  bye  my     love,         mach et jot,                        bes  zum  nächste  Mol 

                 +       +     F             +       +     C                     F             +       + 
E|---------------------------|---------------------------|---------------------|---------------------------| 
B|---------------------------|---------------------------|---------------------|---------------------------| 
G|-----------0---0-------1---|-2-------------2--\1---0---|---------------------|-2----2----2--\1-------0---| 
D|------0------------0-------|------3------------0-------|------2---------2----|------3------------0-------| 
A|-----------2---------------|-----------0---------------|-3-------------------|-----------0---------------| 
E|-3-------------------------|-1-------------------------|-----------3---------|-1-------------------------| 
            Bye bye      my    love,         du wors jot                  und    eenes     dat es      klor, 

   C        +               F             +       +     E    D7            +     C             +       + 
E|------------------------|---------------------------|------------------------|---------------------------| 
B|------------------------|-----------1---1-------1---|-0--------------0--h1---|-3---p1----0---------------| 
G|----------0-------------|---------------------------|------2-----------------|---------------3-------2---| 
D|------2-------2----0----|------3------------3-------|------0---------0-------|------2------------2-------| 
A|-3----------------------|-3-------------------------|-----------0------------|-3---------3---------------| 
E|--------------3---------|-1---------1---------------|-0----------------------|---------------------------| 
            ich weed dich   nie,      niemols     ver-  jesse          denn die  Nach mit  dir wor     schön 

   A             +       +     Dm                    G                     C        + 
E|---------------------------|---------------------|---------------------|------------------------| 
B|---------------------------|---------------------|-0-------------------|-1----------------------| 
G|---------------0---0--h1---|-2-------------------|-----------0---------|----------0-------------| 
D|------2--------------------|------0----3---------|------0---------0----|------2------------0----| 
A|-0-----------------0-------|----------------0----|-----------2---------|-3----------------------| 
E|-----------0---------------|-1---------1---------|-3-------------------|--------------3---------| 
                 bye bye my    Love,     auf         Wie-      der         sehen. 


Verse 
   C      +     +     +    G  +                   +     +     +     +    C          + 
E|-----------------------|-------------------|-------------------------|-------------------| 
B|-----------------------|-0-----------------|----0--0--0--------------|-------------------| 
G|-----0--0--2--2--3--3--|-------------------|-------------3--3--2--2--|-0----------0------| 
D|-----2-----------0-----|----3--------------|-------0-----------0-----|-----2---------2---| 
A|-3---------3-----------|-------2-------2---|-------------2-----------|-3-----------------| 
E|-----------------------|-3---------3-------|-3-----------------------|---------3---------| 
     Schon als ich mit dir je-danz han,           hat ich e wunderbar Je-föhl. 
                                           
                                           
          +     +     +    G  +                   +     +     +     +    C      +     + 
E|-----------------------|-------------------|-------------------------|---------------------| 
B|-----------------------|-0-----------------|----0--0--0--0--0--1-h3--|-1-------------------| 
G|-----0--0--2--2--3--3--|-------------------|-------------------------|--------0-----0------| 
D|-----2-----------0-----|----3--------------|-------0-----------0-----|-----2-----------2---| 
A|-3---------3-----------|-------2-------2---|-------------2-----------|-3-------------------| 
E|-----------------------|-3---------3-------|-3-----------------------|-----------3---------| 
     Un irjendwie kom dann ding Hand dann,        do krät ich botterweeche Knie. 

          +            F  +     +            Fm +     +            C  +         +     + 
E|-------------------|---------------------|---------------------|-----------------------| 
B|---------------1---|----1--1--1------1---|----1-----1----------|-1-----1---0-----------| 
G|--------0----------|-2-------------------|-1-------------------|----0---------3-----2--| 
D|-----2---------2---|-------3---------3---|-------3---------3---|-------2---------0-----| 
A|-3-----------------|-------------3-------|-------------3-------|-3---------3-----------| 
E|-----------3-------|-1-------------------|-1-------------------|-----------------------| 
                 Dann simmer zo dir,   du    lochs neeven mir, häs leis zu mir jesaat. 
                                                                                
   A      +            D7 +     +               +     +            G          +     + 
E|-------------------|---------------------|---------------------|---------------------| 
B|---------------0---|----1--1--1----------|----1--1--1----------|-3---3---0-----------| 
G|--------2----------|-2-------------------|-2-------------------|------------2-----0--| 
D|-----2---------0---|-------0---------0---|-------0---------0---|-----0---------0-----| 
A|-0-----------------|-0-------------------|-0-------------------|---------------------| 
E|-----------0-------|-------------2-------|-------------2-------|-3-------3-----------| 
            „Du ich  jläuv du moß jon, dat   musste verstonn un deit et dir noch so wee.""                   


Chorus2ndVoice    (sing along 1st voice) 
   C                     G             +       +              +                             +       + 
E|------0----1----2----|-3-------------3--p2---1---|------------------------|-3----3----3--p2-------1---| 
B|---------------------|---------------------------|------------------------|---------------------------| 
G|---------------------|---------------------------|----------0-------------|---------------------------| 
D|------2---------0----|------0------------0-------|------0------------0----|------0------------0-------| 
A|-3---------3---------|-----------2---------------|--------------2---------|-----------2---------------| 
E|---------------------|-3-------------------------|-3----------------------|-3-------------------------| 

                 +       +     F             +       +     C        +               F             +       + 
E|---------------------------|-1-------------3--p1---0---|------------------------|-1----1----3--p1-------0--| 
B|-----------3---3-------4---|---------------------------|------------------------|--------------------------| 
G|---------------------------|---------------------------|----------0-------------|--------------------------| 
D|------0------------0-------|------3------------3-------|------2------------2----|------3------------3------| 
A|-----------2---------------|-----------0---------------|-3----------------------|-----------0--------------| 
E|-3-------------------------|-1-------------------------|--------------3---------|-1------------------------| 

   C        +               F             +       +     E    D             +         +           +     + 
E|----------0-------------|-----------1---1-------1---|-0--------------5--/7---|-10------8----7-\6-----5---| 
B|--------------3----1----|---------------------------|------3-----------------|---------------------------| 
G|------------------------|-2-------------------------|------------------------|-----0--------------0------| 
D|------2------------0----|------3------------3-------|------0---------0-------|---------------------------| 
A|-3----------------------|---------------------------|-----------0------------|---------------------------| 
E|--------------3---------|-1---------1---------------|-0----------------------|-10------8----7------------| 

   A             +          Dm       +               G        +               C        + 
E|---------------0---0----|-1----------------------|-3------------1---------|-0----------------------| 
B|------------------------|--------------3---------|------------------------|------------------------| 
G|------6-----------------|----------2-------------|----------0-------------|----------0-------------| 
D|------7-----------------|------0------------0----|------0------------0----|------2------------0----| 
A|-------------------0----|-0----------------------|--------------2---------|-3----------------------| 
E|-5---------0------------|--------------1---------|-3----------------------|--------------3---------| 


2ndVerse     (play just the first two lines of the Verse) 
Noch ene leetzte Blick zum Abschied,   (bye bye) Du braats mich zärtlich an d’r Dür (bye bye) 
Un irjendwie komm dann ding Hand dann  (bye bye) Un wollt ne Hunderter vun mir      (bye bye) 

************************************                                  

| h   Hammer-on 
| p   Pull-off 
| /   Slide up   
| \   Slide down 
                                          
************************************ 
    	
fixar
fixar inscrever-se

enviado porenviado por: ubirbomfim
cifra enviadaCorrigida por: sem correções
logo top cifrasComente
ico música do artistaMúsicas deste artista
ico curtiuCurtiu?
ico destaqueDestaque
Petaxxon Comunicação Online

Cifras.com.br - Melhor e mais completo site de cifras e tablaturas do Brasil Mais de 1 milhão de acordes de músicas cadastradas desde 2003
As informações contidas no nosso site são colaborações de seus usuários e podem conter erros, sendo assim, não nos responsabilizamos sobre nenhuma destas.

close
menos
mais
close
Cor dos acordes:

Cor da letra:

close
Alinhar acordes a direita Alinhar acordes a esquerda Alinhar acordes em baixo Alinhar acordes no topo
close
  Mostrar todos os acordes Esconder acordes muito fáceis Esconder acordes fáceis Esconder acordes intermediários
redimensionar
glossário