Cifras e Tablaturas
Cifras Cancelar Versão de Impressão
cifras

Black Rebel Motorcycle Club - Love Burns

fixar na tela  
Exibindo: vídeo-aula ver clipes redimensionar

Tom:

  
E|---------------------------------------------------| 
B|---------------------------------------------------| 
G|---------------------------------------------------| 
D|---99999999---9-9-9-9-9-9-9-9---9-9-9-9-9-9-9-9----| 
A|---77777777---7-7-7-7-7-7-7-7---7-7-7-7-7-7-7-7----| 
E|---00000000---9-9-9-9-9-9-9-9---8-8-8-8-8-8-8-8----| 


Refrão: 


E|---------------------------------------------------| 
B|---------------------------------------------------| 
G|--1-1-1---4-4-4---6-6-6----4-4-4-------------------| 
D|--2-2-2---5-5-5---7-7-7----5-5-5-------------------| 
A|--2-2-2---5-5-5---7-7-7----5-5-5-------------------| 
E|--0-0-0---0-0-0---0-0-0----0-0-0-------------------| 


Bridge: 


E|---------------------------------------------------| 
B|---------------------------------------------------| 
G|--1-1-1-1----4-4-4-4----6-6-6-6-6-6-6-6------------| 
D|--2-2-2-2----5-5-5-5----7-7-7-7-7-7-7-7------------| 
A|--2-2-2-2----5-5-5-5----7-7-7-7-7-7-7-7------------| 
E|--0-0-0-0----3-3-3-3----5-5-5-5-5-5-5-5------------| 

 
  

top 5 | black rebel motorcycle club
top rock alternativo
Outras músicas do artista letras do(a) Black Rebel Motorcycle Club
Top cifras »Top artistas »
Petaxxon Comunicação Online
Cifras.com.br - Melhor e mais completo site de cifras e tablaturas do Brasil
Mais de 1 milhão de acordes de músicas cadastradas desde 2003
As informações contidas no nosso site são colaborações de seus usuários e podem conter erros, sendo assim, não nos responsabilizamos sobre nenhuma destas.
close
menos
mais
close
Cor dos acordes:

Cor da letra:

 

save
close
close
 
redimensionar