Cifras e Tablaturas
Blackberry Smoke

Blackberry Smoke

Shake Your Magnolia

Cifras Cancelar Versão de Impressão
cifras

Blackberry Smoke - Shake Your Magnolia

fixar na tela  
Exibindo: vídeo-aula ver clipes redimensionar

Tom:

  

intro (capo5) 
e|------------------------------------| 
B|------------------------------------| 
G|-------2-----10/11-----12-----10/11-| 
D|-------2------9/10-----12------9/10-| 
A|-----0---0-0-------0-0----0-0-------| 
E|-0-3--------------------------------| 

e|---------------------------------------------------------------------------| 
B|-----------------------------3---3---3---3---------------------------------| 
G|-------2---12-----10/11--11--2---4---2---4---12----10/11-----12-----10/11--| 
D|-------2---12-----9/10---10--0---0---0---0---12-----9/10-----12------9/10--| 
A|-0-3-4---0----0-0--------------0---0---0---0----0-0------0-0----0-0--------| 
E|---------------------------------------------------------------------------| 

e|---------------------------------------------------------------------------| 
B|----------------------------3---3------------------------------------------| 
G|-------2---12-----10/11-11--2---2------------------------------------------| 
D|-------2---12------9/10-10--0---0---0-1-0----------------------------------| 
A|-0-3-4---0----0-0-------------3---3-------3--------------------------------| 
E|---------------------------------------------------------------------------| 
intro gets played twice 
this intro riff is also played before the first solo 


SOLO 1 (NO CAPO!!!)                   hold bend 
e|---------------------------------|-----------------------------------------| 
B|---------------------------------|----10-10---------12----12-12-10---------| 
G|-----7-7-7---7-9brp7-9---7-----7-|-9b-------9brp7---12-10-12-12-10---------| 
D|-7/9-------9-----------9---7/9---|----------------9------------------------| 
A|---------------------------------|-----------------------------------------| 
E|---------------------------------|-----------------------------------------| 

e|-----10-10-10-10-10-10-------------------------| 
B|-13b----13-13-12-12-10-------------------------| 
G|-----------------------12brp10-12-10b----------| 
D|--------------------------------------12p10-12-| 
A|-----------------------------------------------| 
E|-----------------------------------------------| 

e|-----13---------------13-15brp13-15p13-------------------------------------| 
B|-/13----16b-15p13-15-------------------15-13-13h15-------------------------| 
G|---------------------------------------------------------------------------| 
D|---------------------------------------------------------------------------| 
A|---------------------------------------------------------------------------| 
E|---------------------------------------------------------------------------| 

SOLO 2 ( 
capo 5 !!!) 
e|-------------------------------------------------------------------------------------| 
B|-5b-5b-5-5p2-3p2---2-----------------5-----------------------------------------------| 
G|-----------------4---4p2-----4p2-------2-2-2p0---0-----------2-----2-----2-----2-----| 
D|-------------------------4p2-----4p2-----------4---4p2p0-----------------------------| 
A|---------------------------------------------------------3h4---3h4---3h4---3h4-------| 
E|-------------------------------------------------------------------------------------| 

e|-------------------5---8b-8b-5------5-------|----------------------|-------------------------| 
B|-----------------5---5---------5-8b---5-8b--|----------------------|-------------------------| 
G|-----------2-4/6----------------------------|-12-10-12-10-12-13-10-|-12-10-12-10-12-13-10----| 
D|-----2-2h4----------------------------------|-12-10-12-10-12-13-10-|-12-10-12-10-12-13-10----| 
A|-2h4----------------------------------------|----------------------|-------------------------| 
E|--------------------------------------------|----------------------|-------------------------| 

e|-5-------------------------------------------------------------------------| 
B|-8b------------------------------------------------------------------------| 
G|-----2---------------------------------------------------------------------| 
D|-----2---------------------------------------------------------------------| 
A|-----0---------------------------------------------------------------------| 
E|---------------------------------------------------------------------------| 
  

top 5 | blackberry smoke
top rock'n roll
Outras músicas do artista letras do(a) Blackberry Smoke
Top cifras »Top artistas »
Petaxxon Comunicação Online
Cifras.com.br - Melhor e mais completo site de cifras e tablaturas do Brasil
Mais de 1 milhão de acordes de músicas cadastradas desde 2003
As informações contidas no nosso site são colaborações de seus usuários e podem conter erros, sendo assim, não nos responsabilizamos sobre nenhuma destas.
close
menos
mais
close
Cor dos acordes:

Cor da letra:

 

save
close
close
 
redimensionar