Cifras e Tablaturas
Blink-182

Blink-182

No Heart To Speak Of

Cifras Cancelar Versão de Impressão Print

Blink-182 - No Heart To Speak Of

Tom: G

  			Intro 

  Rhythm 

   G5                                              A5 
e|---------------------------------------------------------------------------| 
B|---------------------------------------------------------------------------| 
G|---------------------------------------------------------------------------| 
D|-5-5-5-5-5-5-5-5-5-5-5-5-5-5-5-5-5-5-5-5-5-5-5-5-7-7-7-7-7-7-7-7-----------| 
A|-5-5-5-5-5-5-5-5-5-5-5-5-5-5-5-5-5-5-5-5-5-5-5-5-7-7-7-7-7-7-7-7-----------| 
E|-3-3-3-3-3-3-3-3-3-3-3-3-3-3-3-3-3-3-3-3-3-3-3-3-5-5-5-5-5-5-5-5-----------| 

   B5                                              A5 
e|---------------------------------------------------------------------------| 
B|---------------------------------------------------------------------------| 
G|---------------------------------------------------------------------------| 
D|-9-9-9-9-9-9-9-9-9-9-9-9-9-9-9-9-9-9-9-9-9-9-9-9-7-7-7-7-7-7-7-7-----------| 
A|-9-9-9-9-9-9-9-9-9-9-9-9-9-9-9-9-9-9-9-9-9-9-9-9-7-7-7-7-7-7-7-7-----------| 
E|-7-7-7-7-7-7-7-7-7-7-7-7-7-7-7-7-7-7-7-7-7-7-7-7-5-5-5-5-5-5-5-5-----------| 

  Lead 

e|---------------------------------------------------------------------------| 
B|---------------------------------------------------------------------------| 
G|---------------------------------------------------------------------------| 
D|----7-----5-----4-----4-------7-----5-----4--------------------------------| 
A|-5-----5-----5-----5-------5-----5-----5-----5--7--------------------------| 
E|---------------------------------------------------------------------------| 


verse 1 

e|---------------------------------------------------------------------------| 
B|---------------------------------------------------------------------------| 
G|---4-----4-----4----4-----4-----4----4-----4-----4----6-----6-----6--------| 
D|-5---5-5---5-5----5---5-5---5-5----5---5-5---5-5----7---7-7---7-7----------| 
A|---------------------------------------------------------------------------| 
E|---------------------------------------------------------------------------| 
                                                                               x2 
e|---------------------------------------------------------------------------| 
B|---------------------------------------------------------------------------| 
G|---7-----7-----7----7-----7-----7----7-----7-----7----6-----6-----6--------| 
D|-9---9-9---9-9----9---9-9---9-9----9---9-9---9-9----7---7-7---7-7----------| 
A|---------------------------------------------------------------------------| 
E|---------------------------------------------------------------------------| 


e|---------------------------------------------------------------------------| 
B|---------------------------------------------------------------------------| 
G|------------------------------------------------------------7-----5-----4--| 
D|---------------------------------------------------------5-----5-----5-----| 
A|---------------------------------------------------------------------------| 
E|---------------------------------------------------------------------------| 


Chorus 

 Rhythm 

    G5                                              A5 
e|---------------------------------------------------------------------------| 
B|---------------------------------------------------------------------------| 
G|---------------------------------------------------------------------------| 
D|-5-5-5-5-5-5-5-5-5-5-5-5-5-5-5-5-5-5-5-5-5-5-5-5-7-7-7-7-7-7-7-7-----------| 
A|-5-5-5-5-5-5-5-5-5-5-5-5-5-5-5-5-5-5-5-5-5-5-5-5-7-7-7-7-7-7-7-7-----------| 
E|-3-3-3-3-3-3-3-3-3-3-3-3-3-3-3-3-3-3-3-3-3-3-3-3-5-5-5-5-5-5-5-5-----------| 
                                                                               x2 
   B5                                              A5 
e|---------------------------------------------------------------------------| 
B|---------------------------------------------------------------------------| 
G|---------------------------------------------------------------------------| 
D|-9-9-9-9-9-9-9-9-9-9-9-9-9-9-9-9-9-9-9-9-9-9-9-9-7-7-7-7-7-7-7-7-----------| 
A|-9-9-9-9-9-9-9-9-9-9-9-9-9-9-9-9-9-9-9-9-9-9-9-9-7-7-7-7-7-7-7-7-----------| 
E|-7-7-7-7-7-7-7-7-7-7-7-7-7-7-7-7-7-7-7-7-7-7-7-7-5-5-5-5-5-5-5-5-----------| 



  Lead 

e|---------------------------------------------------------------------------| 
B|---------------------------------------------------------------------------| 
G|---------------------------------------------------------------------------| 
D|----7-----5-----4-----4-------7-----5-----4--------------------------------|  
A|-5-----5-----5-----5-------5-----5-----5-----5--7--------------------------| 
E|---------------------------------------------------------------------------| x2 


verse 2 

e|---------------------------------------------------------------------------| 
B|---------------------------------------------------------------------------| 
G|---4-----4-----4----4-----4-----4----4-----4-----4----6-----6-----6--------| 
D|-5---5-5---5-5----5---5-5---5-5----5---5-5---5-5----7---7-7---7-7----------| 
A|---------------------------------------------------------------------------| 
E|---------------------------------------------------------------------------| 
                                                                               x2 
e|---------------------------------------------------------------------------| 
B|---------------------------------------------------------------------------| 
G|---7-----7-----7----7-----7-----7----7-----7-----7----6-----6-----6--------| 
D|-9---9-9---9-9----9---9-9---9-9----9---9-9---9-9----7---7-7---7-7----------| 
A|---------------------------------------------------------------------------| 
E|---------------------------------------------------------------------------| 


e|---------------------------------------------------------------------------| 
B|---------------------------------------------------------------------------| 
G|------------------------------------------------------------7-----5-----4--| 
D|---------------------------------------------------------5-----5-----5-----| 
A|---------------------------------------------------------------------------| 
E|---------------------------------------------------------------------------| 


Chorus 


 Rhythm 

    G5                                              A5 
e|---------------------------------------------------------------------------| 
B|---------------------------------------------------------------------------| 
G|---------------------------------------------------------------------------| 
D|-5-5-5-5-5-5-5-5-5-5-5-5-5-5-5-5-5-5-5-5-5-5-5-5-7-7-7-7-7-7-7-7-----------| 
A|-5-5-5-5-5-5-5-5-5-5-5-5-5-5-5-5-5-5-5-5-5-5-5-5-7-7-7-7-7-7-7-7-----------| 
E|-3-3-3-3-3-3-3-3-3-3-3-3-3-3-3-3-3-3-3-3-3-3-3-3-5-5-5-5-5-5-5-5-----------| 
                                                                               x2 
   B5                                              A5 
e|---------------------------------------------------------------------------| 
B|---------------------------------------------------------------------------| 
G|---------------------------------------------------------------------------| 
D|-9-9-9-9-9-9-9-9-9-9-9-9-9-9-9-9-9-9-9-9-9-9-9-9-7-7-7-7-7-7-7-7-----------| 
A|-9-9-9-9-9-9-9-9-9-9-9-9-9-9-9-9-9-9-9-9-9-9-9-9-7-7-7-7-7-7-7-7-----------| 
E|-7-7-7-7-7-7-7-7-7-7-7-7-7-7-7-7-7-7-7-7-7-7-7-7-5-5-5-5-5-5-5-5-----------| 


  Lead 

e|---------------------------------------------------------------------------| 
B|---------------------------------------------------------------------------| 
G|---------------------------------------------------------------------------| 
D|----7-----5-----4-----4-------7-----5-----4--------------------------------|  
A|-5-----5-----5-----5-------5-----5-----5-----5--7--------------------------| 
E|---------------------------------------------------------------------------| x2 



Bridge 

this riff is played during the second half of the bridge 

e|---------------------------------------------------------------------------| 
B|---------------------------------------------------------------------------| 
G|---------------------------------------------------------------------------| 
D|---------------------------------------------------------------------------| 
A|-----5-------5-------5-------5-------5-------------------------------------| 
E|-3-3-----3-3-----5-5-----7-7-----7-7---------------------------------------| 


Chorus 


 Rhythm 

    G5                                              A5 
e|---------------------------------------------------------------------------| 
B|---------------------------------------------------------------------------| 
G|---------------------------------------------------------------------------| 
D|-5-5-5-5-5-5-5-5-5-5-5-5-5-5-5-5-5-5-5-5-5-5-5-5-7-7-7-7-7-7-7-7-----------| 
A|-5-5-5-5-5-5-5-5-5-5-5-5-5-5-5-5-5-5-5-5-5-5-5-5-7-7-7-7-7-7-7-7-----------| 
E|-3-3-3-3-3-3-3-3-3-3-3-3-3-3-3-3-3-3-3-3-3-3-3-3-5-5-5-5-5-5-5-5-----------| 
                                                                               x2 
   B5                                              A5 
e|---------------------------------------------------------------------------| 
B|---------------------------------------------------------------------------| 
G|---------------------------------------------------------------------------| 
D|-9-9-9-9-9-9-9-9-9-9-9-9-9-9-9-9-9-9-9-9-9-9-9-9-7-7-7-7-7-7-7-7-----------| 
A|-9-9-9-9-9-9-9-9-9-9-9-9-9-9-9-9-9-9-9-9-9-9-9-9-7-7-7-7-7-7-7-7-----------| 
E|-7-7-7-7-7-7-7-7-7-7-7-7-7-7-7-7-7-7-7-7-7-7-7-7-5-5-5-5-5-5-5-5-----------| 


  Lead 

e|---------------------------------------------------------------------------| 
B|---------------------------------------------------------------------------| 
G|---------------------------------------------------------------------------| 
D|----7-----5-----4-----4-------7-----5-----4--------------------------------|  
A|-5-----5-----5-----5-------5-----5-----5-----5--7--------------------------| 
E|---------------------------------------------------------------------------| x2 



Outro 

e|---------------------------------------------------------------------------| 
B|---------------------------------------------------------------------------| 
G|---------------------------------------------------------------------------| 
D|----7-----5-----4-----4-------7-----5-----4--------------------------------| 
A|-5-----5-----5-----5-------5-----5-----5-----5--7--------------------------| 
E|---------------------------------------------------------------------------| x2 
    	
fixar
fixar inscrever-se

enviado porenviado por: tamamoreira
cifra enviadaCorrigida por: sem correções
logo top cifrasComente
ico música do artistaMúsicas deste artista
ico curtiuCurtiu?
ico destaqueDestaque
Petaxxon Comunicação Online

Cifras.com.br - Melhor e mais completo site de cifras e tablaturas do Brasil Mais de 1 milhão de acordes de músicas cadastradas desde 2003
As informações contidas no nosso site são colaborações de seus usuários e podem conter erros, sendo assim, não nos responsabilizamos sobre nenhuma destas.

close
menos
mais
close
Cor dos acordes:

Cor da letra:

close
Alinhar acordes a direita Alinhar acordes a esquerda Alinhar acordes em baixo Alinhar acordes no topo
close
  Mostrar todos os acordes Esconder acordes muito fáceis Esconder acordes fáceis Esconder acordes intermediários
redimensionar
glossário