Cifras e Tablaturas
Blink-182

Blink-182

Not Every Dog Goes To Heaven

Cifras Cancelar Versão de Impressão
cifras

Blink-182 - Not Every Dog Goes To Heaven

fixar na tela  
Exibindo: vídeo-aula ver clipes redimensionar

Tom:

  
Intro 

e|-------|-------|-------|---------------------| 
B|-------|-------|-------|---------------------| 
G|-------|-----7-|-----5-|----------5----------| 
D|-----9-|---7---|---5---|--5-5-5---5---5----\-| 
A|---7---|-5-----|-3-----|--5-5-5---3---5----\-| 
E|-0-----|-------|-------|--3-3-3-------3----\-| 

e|-------------------|---------------| 
B|-------------------|---------------| 
G|---------5-5-5-----|---------------| 
D|-2-2-2---5-5-5---5-|--5-5-5-5-5-5--| 
A|-2-2-2---3-3-3---5-|--5-5-5-5-5-5--| 
E|-0-0-0-----------3-|--3-3-3-3-3-3--| 
                           PM 

Verse 

e|-7---7-8--7---7---|-7---7-10-8-7----|-7---7-8--7---|-7---7-8--7---|-7---7-10-8-7----| 
B|---8--------8---8-|---8-----------8-|---8--------8-|---8--------8-|---8-----------8-| 
G|------------------|-----------------|--------------|--------------|-----------------| 
D|------------------|-----------------|--------------|--------------|-----------------| 
A|------------------|-----------------|--------------|--------------|-----------------| 
E|------------------|-----------------|--------------|--------------|-----------------| 


verse 1 

e|---------------------------------|---------------------------------| 
B|---------------------------------|---------------------------------| 
G|---------------------------------|-5-5-5-5-5-5-5-5-5-5-5-5-5-5-5-5-| 
D|-5-5-5-5-5-5-5-5-5-5-5-5-5-5-5-5-|-5-5-5-5-5-5-5-5-5-5-5-5-5-5-5-5-| 
A|-5-5-5-5-5-5-5-5-5-5-5-5-5-5-5-5-|-3-3-3-3-3-3-3-3-3-3-3-3-3-3-3-3-| 
E|-3-3-3-3-3-3-3-3-3-3-3-3-3-3-3-3-|---------------------------------| 
               PM                               PM 
e|-----------------|-----------------|---------------------------------| 
B|-----------------|-----------------|---------------------------------| 
G|-9-9-9-9-9-9-9-9-|-7-7-7-7-7-7-7-7-|-5-5-5-5-5-5-5-5-5-5-5-5-5-5-5-5-| 
D|-9-9-9-9-9-9-9-9-|-7-7-7-7-7-7-7-7-|-5-5-5-5-5-5-5-5-5-5-5-5-5-5-5-5-| 
A|-7-7-7-7-7-7-7-7-|-5-5-5-5-5-5-5-5-|-3-3-3-3-3-3-3-3-3-3-3-3-3-3-3-3-| 
E|-----------------|-----------------|---------------------------------| 
          PM              PM                     PM  

e|---------------------------------|---------------------------------| 
B|---------------------------------|---------------------------------| 
G|---------------------------------|-5-5-5-5-5-5-5-5-5-5-5-5-5-5-5-5-| 
D|-5-5-5-5-5-5-5-5-5-5-5-5-5-5-5-5-|-5-5-5-5-5-5-5-5-5-5-5-5-5-5-5-5-| 
A|-5-5-5-5-5-5-5-5-5-5-5-5-5-5-5-5-|-3-3-3-3-3-3-3-3-3-3-3-3-3-3-3-3-| 
E|-3-3-3-3-3-3-3-3-3-3-3-3-3-3-3-3-|---------------------------------| 
               PM                               PM 
e|-----------------|-----------------|---------------------------------| 
B|-----------------|-----------------|---------------------------------| 
G|-9-9-9-9-9-9-9-9-|-7-7-7-7-7-7-7-7-|-5-5-5-5-5-5-5-5-5-5-5-5-5-5-5-5-| 
D|-9-9-9-9-9-9-9-9-|-7-7-7-7-7-7-7-7-|-5-5-5-5-5-5-5-5-5-5-5-5-5-5-5-5-| 
A|-7-7-7-7-7-7-7-7-|-5-5-5-5-5-5-5-5-|-3-3-3-3-3-3-3-3-3-3-3-3-3-3-3-3-| 
E|-----------------|-----------------|---------------------------------| 
          PM              PM                     PM  

"You could not keep up" 
e|--------------3--| 
B|--------------4--| 
G|-9--9---7-7---5--| 
D|-9--9---7-7---5--| 
A|-7--7---5-5---3--| 
E|-----------------| 


Chorus 

e|-------------------------------------|-------------------|-----------------| 
B|-------------------------------------|-------------------|-----------------| 
G|-----------5-5-5-5-------------------|-2-2-2-2---5-5-5-5-|-----------------| 
D|-5-5-5-5---5-5-5-5---5-5-5-5-5-5-5-5-|-2-2-2-2---5-5-5-5-|-5-5-5-5-5-5-5-5-| 
A|-5-5-5-5---3-3-3-3---5-5-5-5-5-5-5-5-|-0-0-0-0---3-3-3-3-|-5-5-5-5-5-5-5-5-| 
E|-3-3-3-3-------------3-3-3-3-3-3-3-3-|-------------------|-3-3-3-3-3-3-3-3-| 
                                                                   PM 
e|-------------------------------------------------------|-------------------------------| 
B|-------------------------------------------------------|-------------------------------| 
G|-2-2-2-2-2-2---5-5-5-5-5-5-----------------------------|-2-2-2-2-2-2---5-5-5-5-5-5-----| 
D|-2-2-2-2-2-2---5-5-5-5-5-5---5-5-5-5-5-5---7-7-7-7-7-7-|-2-2-2-2-2-2---5-5-5-5-5-5---\-| 
A|-0-0-0-0-0-0---3-3-3-3-3-3---5-5-5-5-5-5---7-7-7-7-7-7-|-0-0-0-0-0-0---3-3-3-3-3-3---\-| 
E|-----------------------------3-3-3-3-3-3---5-5-5-5-5-5-|-----------------------------\-| 


verse 2 

e|--3-------| 
B|--3-------| 
G|--0----5--| 
D|--0----5--| 
A|--2----3--| 
E|--3-------| 

e|-3---3---4---4-|-----------------|-----------------|---------------------------------| 
B|-3---3---5---5-|-----------------|-----------------|---------------------------------| 
G|-5---5---5---5-|-9-9-9-9-9-9-9-9-|-7-7-7-7-7-7-7-7-|-5-5-5-5-5-5-5-5-5-5-5-5-5-5-5-5-| 
D|---------------|-9-9-9-9-9-9-9-9-|-7-7-7-7-7-7-7-7-|-5-5-5-5-5-5-5-5-5-5-5-5-5-5-5-5-| 
A|---------------|-7-7-7-7-7-7-7-7-|-5-5-5-5-5-5-5-5-|-3-3-3-3-3-3-3-3-3-3-3-3-3-3-3-3-| 
E|---------------|-----------------|-----------------|---------------------------------| 
                         PM                PM                      PM  
e|--------------3--|-x-x-x-x-x-x-x-x-| 
B|--------------4--|-x-x-x-x-x-x-x-x-| 
G|-9--9---7-7---5--|-x-x-x-x-x-x-x-x-| 
D|-9--9---7-7---5--|-x-x-x-x-x-x-x-x-| 
A|-7--7---5-5---3--|-x-x-x-x-x-x-x-x-| 
E|-----------------|-x-x-x-x-x-x-x-x-| 


Chorus 

e|-------------------------------------|-------------------|-----------------| 
B|-------------------------------------|-------------------|-----------------| 
G|-----------5-5-5-5-------------------|-2-2-2-2---5-5-5-5-|-----------------| 
D|-5-5-5-5---5-5-5-5---5-5-5-5-5-5-5-5-|-2-2-2-2---5-5-5-5-|-5-5-5-5-5-5-5-5-| 
A|-5-5-5-5---3-3-3-3---5-5-5-5-5-5-5-5-|-0-0-0-0---3-3-3-3-|-5-5-5-5-5-5-5-5-| 
E|-3-3-3-3-------------3-3-3-3-3-3-3-3-|-------------------|-3-3-3-3-3-3-3-3-| 
                                                                   PM 

e|-------------------------------------------------------|-------------------------------| 
B|-------------------------------------------------------|-------------------------------| 
G|-2-2-2-2-2-2---5-5-5-5-5-5-----------------------------|-2-2-2-2-2-2---5-5-5-5-5-5-----| 
D|-2-2-2-2-2-2---5-5-5-5-5-5---5-5-5-5-5-5---7-7-7-7-7-7-|-2-2-2-2-2-2---5-5-5-5-5-5---\-| 
A|-0-0-0-0-0-0---3-3-3-3-3-3---5-5-5-5-5-5---7-7-7-7-7-7-|-0-0-0-0-0-0---3-3-3-3-3-3---\-| 
E|-----------------------------3-3-3-3-3-3---5-5-5-5-5-5-|-----------------------------\-| 


Bridge 

e|---------------------------------|---------------------------------| 
B|---------------------------------|---------------------------------| 
G|---------------------------------|-5-5-5-5-5-5-5-5-5-5-5-5-5-5-5-5-| 
D|-5-5-5-5-5-5-5-5-5-5-5-5-5-5-5-5-|-5-5-5-5-5-5-5-5-5-5-5-5-5-5-5-5-| 
A|-5-5-5-5-5-5-5-5-5-5-5-5-5-5-5-5-|-3-3-3-3-3-3-3-3-3-3-3-3-3-3-3-3-| 
E|-3-3-3-3-3-3-3-3-3-3-3-3-3-3-3-3-|---------------------------------| 

e|-----------------|-----------------|---------------------x-x-----x-x-x-| 
B|-----------------|-----------------|---------------------x-x-----x-x-x-| 
G|-9-9-9-9-9-9-9-9-|-7-7-7-7-7-7-7-7-|-5-5-5-5-5-5-5-5-5-5-x-x-5-5-x-x-x-| 
D|-9-9-9-9-9-9-9-9-|-7-7-7-7-7-7-7-7-|-5-5-5-5-5-5-5-5-5-5-x-x-5-5-x-x-x-| 
A|-7-7-7-7-7-7-7-7-|-5-5-5-5-5-5-5-5-|-3-3-3-3-3-3-3-3-3-3-x-x-3-3-x-x-x-| 
E|-----------------|-----------------|---------------------x-x-----x-x-x-| 


e|---------------------------------|---------------------------------| 
B|---------------------------------|---------------------------------| 
G|---------------------------------|-5-5-5-5-5-5-5-5-5-5-5-5-5-5-5-5-| 
D|-5-5-5-5-5-5-5-5-5-5-5-5-5-5-5-5-|-5-5-5-5-5-5-5-5-5-5-5-5-5-5-5-5-| 
A|-5-5-5-5-5-5-5-5-5-5-5-5-5-5-5-5-|-3-3-3-3-3-3-3-3-3-3-3-3-3-3-3-3-| 
E|-3-3-3-3-3-3-3-3-3-3-3-3-3-3-3-3-|---------------------------------| 

e|-----------------|-----------------|---------------------x-x-----x-x-x-| 
B|-----------------|-----------------|---------------------x-x-----x-x-x-| 
G|-9-9-9-9-9-9-9-9-|-7-7-7-7-7-7-7-7-|-5-5-5-5-5-5-5-5-5-5-x-x-5-5-x-x-x-| 
D|-9-9-9-9-9-9-9-9-|-7-7-7-7-7-7-7-7-|-5-5-5-5-5-5-5-5-5-5-x-x-5-5-x-x-x-| 
A|-7-7-7-7-7-7-7-7-|-5-5-5-5-5-5-5-5-|-3-3-3-3-3-3-3-3-3-3-x-x-3-3-x-x-x-| 
E|-----------------|-----------------|---------------------x-x-----x-x-x-| 

e|---------------------------------|---------------------------------| 
B|---------------------------------|---------------------------------| 
G|---------------------------------|-5-5-5-5-5-5-5-5-5-5-5-5-5-5-5-5-| 
D|-5-5-5-5-5-5-5-5-5-5-5-5-5-5-5-5-|-5-5-5-5-5-5-5-5-5-5-5-5-5-5-5-5-| 
A|-5-5-5-5-5-5-5-5-5-5-5-5-5-5-5-5-|-3-3-3-3-3-3-3-3-3-3-3-3-3-3-3-3-| 
E|-3-3-3-3-3-3-3-3-3-3-3-3-3-3-3-3-|---------------------------------| 

e|-----------------|-----------------|---------------------x-x-----x-x-x-| 
B|-----------------|-----------------|---------------------x-x-----x-x-x-| 
G|-9-9-9-9-9-9-9-9-|-7-7-7-7-7-7-7-7-|-5-5-5-5-5-5-5-5-5-5-x-x-5-5-x-x-x-| 
D|-9-9-9-9-9-9-9-9-|-7-7-7-7-7-7-7-7-|-5-5-5-5-5-5-5-5-5-5-x-x-5-5-x-x-x-| 
A|-7-7-7-7-7-7-7-7-|-5-5-5-5-5-5-5-5-|-3-3-3-3-3-3-3-3-3-3-x-x-3-3-x-x-x-| 
E|-----------------|-----------------|---------------------x-x-----x-x-x-| 


Chorus 

e|-------------------------|-------------------|-----------------| 
B|-------------------------|-------------------|-----------------| 
G|-----5-------------------|-2-2-2-2---5-5-5-5-|-----------------| 
D|-5---5---5-5-5-5-5-5-5-5-|-2-2-2-2---5-5-5-5-|-5-5-5-5-5-5-5-5-| 
A|-5---3---5-5-5-5-5-5-5-5-|-0-0-0-0---3-3-3-3-|-5-5-5-5-5-5-5-5-| 
E|-3-------3-3-3-3-3-3-3-3-|-------------------|-3-3-3-3-3-3-3-3-| 
                                                        PM 
e|-------------------------------------------------------|-------------------------------| 
B|-------------------------------------------------------|-------------------------------| 
G|-2-2-2-2-2-2---5-5-5-5-5-5-----------------------------|-2-2-2-2-2-2---5-5-5-5-5-5-----| 
D|-2-2-2-2-2-2---5-5-5-5-5-5---5-5-5-5-5-5---7-7-7-7-7-7-|-2-2-2-2-2-2---5-5-5-5-5-5---\-| 
A|-0-0-0-0-0-0---3-3-3-3-3-3---5-5-5-5-5-5---7-7-7-7-7-7-|-0-0-0-0-0-0---3-3-3-3-3-3---\-| 
E|-----------------------------3-3-3-3-3-3---5-5-5-5-5-5-|-----------------------------\-| 

e|----------------------------------|----------------------------------| 
B|----------------------------------|----------------------------------| 
G|-4-4-4-4/9-9-9-9--4-4-4-4-4-4-4-4-|-4-4-4-4/9-9-7-7--4-4-4-4-4-4-4-4-| 
D|----------------------------------|----------------------------------| 
A|-2-2-2-2/7-7-7-7--2-2-2-2-2-2-2-2-|-2-2-2-2/7-7-5-5--2-2-2-2-2-2-2-2-| 
E|----------------------------------|----------------------------------| 

e|-----------------------------------|--------------------| 
B|-----------------------------------|--------------------| 
G|-4-4-4-4/9-9-9-9--4-4-4-4--5-5-5-5-|-4-4-4-4/9-9-9-9--4-| 
D|-----------------------------------|--------------------| 
A|-2-2-2-2/7-7-7-7--2-2-2-2--3-3-3-3-|-2-2-2-2/7-7-7-7--2-| 
E|-----------------------------------|--------------------| 



************************************ 

| x   Dead note 
| /   Slide up 
| \   Pick Slide 
| PM  Palm mute 

************************************ 
  

top 5 | blink-182
top rock'n roll
Outras músicas do artista letras do(a) Blink-182
Top cifras »Top artistas »
Petaxxon Comunicação Online
Cifras.com.br - Melhor e mais completo site de cifras e tablaturas do Brasil
Mais de 1 milhão de acordes de músicas cadastradas desde 2003
As informações contidas no nosso site são colaborações de seus usuários e podem conter erros, sendo assim, não nos responsabilizamos sobre nenhuma destas.
close
menos
mais
close
Cor dos acordes:

Cor da letra:

 

save
close
close
 
redimensionar