Cifras e Tablaturas
Blink-182

Blink-182

Parking Lot

Cifras Cancelar Versão de Impressão
cifras

Blink-182 - Parking Lot

fixar na tela  
Exibindo: vídeo-aula ver clipes redimensionar
  
Intro A 

e|---------------------------------------------------------------------------| 
B|---------------------------------------------------------------------------| 
G|---------7-----------7-----------7-----------------------------------------| 
D|--2-2-2--7---2-2-2---7---2-2-2---7-----------------------------------------| 
A|--2-2-2--5---2-2-2---5---2-2-2---5-----------------------------------------| 
E|--0-0-0------0-0-0-------0-0-0---------------------------------------------| 
    . . .      . . .       . . . 

e|---------------------------------------------------------------------------| 
B|---------------------------------------------------------------------------| 
G|---------7-----------------------------------------------------------------| 
D|--2-2-2--7---2-2-2---4---2-2-2---------------------------------------------| 
A|--2-2-2--5---2-2-2---5---2-2-2---------------------------------------------| 
E|--0-0-0------0-0-0---2---0-0-0---------------------------------------------| 
    . . .      . . .       . . . 
Intro B 

Guitar 1 

e|---------------------------------------------------------------------------| 
B|------------------------------------5-5-5-5^----10-10-10-10^---------------| 
G|--11--7---7--11--7-----7--11-----7--7-7-7-7^----12-12-12-12^---------------| 
D|--------7-----------7---------7--------------------------------------------| 
A|---------------------------------------------------------------------------| 
E|---------------------------------------------------------------------------| 

Guitar 2 


e|---------------------------------------------------------------------------| 
B|---------------------------------------------------------------------------| 
G|---7-----------------------------------------------------------------------| 
D|---7-(x4)--7---------------------------------------------------------------| 
A|---5-------7--(x4)---------------------------------------------------------| 
E|-----------5---------------------------------------------------------------| 


verse 1A 

e|---------------------------------------------------------------------------| 
B|---------------------------------------------------------------------------| 
G|---7-----------------------------------------------------------------------| 
D|---7--(x12)-4--------5---------------7-------------------------------------| 
A|---5--------4-(x12)--5--(x12)--------7-(x12)-------------------------------| 
E|------------2--------3---------------5-------------------------------------| 
     .        .        .               . 
verse 1B 

(Guitar 1) 

e|---------------------------------------------------------------------------| 
B|---------------------------------------------------------------------------| 
G|---11--11-11-14--14--14----------------16--------14------------------------| 
D|----x--x--x--x---x---x-----(x3)--------x----(x3)--x---(x3)-----------------| 
A|----9--9--9--12--12--12----------------14--------12------------------------| 
E|---------------------------------------------------------------------------| 

(Guitar 2) 
e|---------------------------------------------------------------------------| 
B|---------------------------------------------------------------------------| 
G|---7-----------------------------------------------------------------------| 
D|---7--(x12)-4--------5---------------7-------------------------------------| 
A|---5--------4-(x12)--5--(x12)--------7-(x8)--------------------------------| 
E|------------2--------3---------------5-------------------------------------| 


Pre Chorus 

(Guitar 1) 

e|---------------------------------------------------------------------------| 
B|---------------------------------------------------------------------------| 
G|--4--------6--------7----------11------------------------------------------| 
D|--x--------x--------x-----------x------------------------------------------| (x2) 
A|--2--(x4)--4--(x4)--5--(x4)-----9---(x8)-----------------------------------| 
E|---------------------------------------------------------------------------| 


(Guitar 2) 

e|---------------------------------------------------------------------------| 
B|---------------------------------------------------------------------------| 
G|---------------------------------------------------------------------------| 
D|--5-------7------9-------4-------------------------------------------------| (x2) 
A|--5-(x4)--7-(x4)-9-(x8)--4-(x8)--------------------------------------------| 
E|--3-------5------7-------2-------------------------------------------------| 


Chorus 

(Guitar 2) 

e|---------------------------------------------------------------------------| 
B|---------------------------------------------------------------------------| 
G|---------------------------------------------------------------------------| 
D|--5-------7-------9------4------5--7---------------------------------------| 
A|--5--(x8)-7-(x8)--9-(x8)-4-(x8)-5--7---------------------------------------| 
E|--3-------5-------7------2------3--5---------------------------------------| 

(Guitar 1) 

e|---------------------------------------------------------------------------| 
B|---------------------------------------------------------------------------| 
G|--4--------6--------7----------11----------4---------6---------------------| 
D|--x--------x--------x-----------x----------x---------x---------------------| (x2) 
A|--2--(x4)--4--(x4)--5--(x4)-----9---(x8)---2--(x8)---4---------------------| 
E|---------------------------------------------------------------------------| 


Bridge 1 


(Guitar 1) 

e|(--------------------)-----------------------------------------------------| 
B|(--------------------)-----------------------------------------------------| 
G|(--11-------9--------)------------------11--------9------------------------| 
D|(--x--------x--------)----(x3)-----------x--------x------------------------| 
A|(--9--(x3)--7--------)-------------------9--(x8)--7--(x8)------------------| 
E|(--------------------)-----------------------------------------------------| 

(Guitar 2) 

e|------------------------| 
B|------------------------| 
G|----7-------------------| 
D|----7-(x16)--7----------| 
A|----5--------7--(x16)---| 
E|-------------5----------| 


Intro Again 

(Guitar 1) 

e|---------------------------------------------------------------------------| 
B|---------------------------------------------------------------------------| 
G|---------7-----------7-----------7-----------------------------------------| 
D|--2-2-2--7---2-2-2---7---2-2-2---7-----------------------------------------| 
A|--2-2-2--5---2-2-2---5---2-2-2---5-----------------------------------------| 
E|--0-0-0------0-0-0-------0-0-0---------------------------------------------| 
    . . .      . . .       . . . 

(Guitar 2) 

e|---------------------------------------------------------------------------| 
B|---------------------------------------------------------------------------| 
G|---------7-----------------------------------------------------------------| 
D|--2-2-2--7---2-2-2---4---2-2-2---------------------------------------------| 
A|--2-2-2--5---2-2-2---5---2-2-2---------------------------------------------| 
E|--0-0-0------0-0-0---2---0-0-0---------------------------------------------| 
    . . .      . . .       . . . 

Intro B 


Guitar 1 

e|---------------------------------------------------------------------------| 
B|------------------------------------5-5-5-5^----10-10-10-10^---------------| 
G|--11--7---7--11--7-----7--11-----7--7-7-7-7^----12-12-12-12^---------------| 
D|--------7-----------7---------7--------------------------------------------| 
A|---------------------------------------------------------------------------| 
E|---------------------------------------------------------------------------| 

Guitar 2 


e|---------------------------------------------------------------------------| 
B|---------------------------------------------------------------------------| 
G|---7-----------------------------------------------------------------------| 
D|---7-(x4)--7---------------------------------------------------------------| 
A|---5-------7--(x4)---------------------------------------------------------| 
E|-----------5---------------------------------------------------------------| 

verse 2A 


e|---------------------------------------------------------------------------| 
B|---------------------------------------------------------------------------| 
G|-----7---------------------------------------------------------------------| 
D|-----7--(x10)--7----------5-------7----------------------------------------| 
A|-----5---------7--(x10)---5-(x8)--7--(x8)----------------------------------| 
E|---------------5----------3-------5----------------------------------------| 

verse 2B 

(Guitar 1) 

e|-(-------------)-------------------------------------------------------------| 
B|-(-------------)-------------------------------------------------------------| 
G|-(11--------14-)----------12--------7----------------------------------------| 
D|-(-x---------x-)-(x4)-----x-(x16)---x--(x16)---------------------------------| 
A|-(-9--(x2)--12-)----------10--------9----------------------------------------| 
E|-(-------------)-------------------------------------------------------------| 

(Guitar 2) 

e|---------------------------------------------------------------------------| 
B|---------------------------------------------------------------------------| 
G|-----7---------------------------------------------------------------------| 
D|-----7--(x10)--7----------5-------7----------------------------------------| 
A|-----5---------7--(x10)---5-(x8)--7--(x8)----------------------------------| 
E|---------------5----------3-------5----------------------------------------| 

Pre Chorus 

(Guitar 1) 

e|---------------------------------------------------------------------------| 
B|---------------------------------------------------------------------------| 
G|--4--------6--------7----------11------------------------------------------| 
D|--x--------x--------x-----------x------------------------------------------| (x2) 
A|--2--(x4)--4--(x4)--5--(x4)-----9---(x8)-----------------------------------| 
E|---------------------------------------------------------------------------| 

(Guitar 2) 

e|---------------------------------------------------------------------------| 
B|---------------------------------------------------------------------------| 
G|---------------------------------------------------------------------------| 
D|--5-------7------9-------4-------------------------------------------------| (x2) 
A|--5-(x4)--7-(x4)-9-(x8)--4-(x8)--------------------------------------------| 
E|--3-------5------7-------2-------------------------------------------------| 


Chorus 

(Guitar 2) 

e|---------------------------------------------------------------------------| 
B|---------------------------------------------------------------------------| 
G|---------------------------------------------------------------------------| 
D|--5-------7-------9------4------5--7---------------------------------------| 
A|--5--(x8)-7-(x8)--9-(x8)-4-(x8)-5--7---------------------------------------| 
E|--3-------5-------7------2------3--5---------------------------------------| 

(Guitar 1) 

e|---------------------------------------------------------------------------| 
B|---------------------------------------------------------------------------| 
G|--4--------6--------7----------11----------4---------6---------------------| 
D|--x--------x--------x-----------x----------x---------x---------------------| (x2) 
A|--2--(x4)--4--(x4)--5--(x4)-----9---(x8)---2--(x8)---4---------------------| 
E|---------------------------------------------------------------------------| 



Bridge 2A 

e|--------------------------| 
B|--------------------------| 
G|------7-------------------| 
D|------7--(x3)-7-----------| 
A|------5-------7--(x6)-----| 
E|--------------5-----------| 

e|---------------------------------------------------------------------------| 
B|---------------------------------------------------------------------------| 
G|---11------9------11------7------11-------14--------11-------9-------------|(x2) 
D|---x--(x8)-x-(x8)-x--(x8)-x-(x8)-x--(x8)---x-(x8)---x--(x8)--x--(x8)-------| 
A|---9-------7------9-------5------9--------12--------9--------7-------------| 
E|---------------------------------------------------------------------------| 

Bridge 2B 

(Guitar 1) 

e|---------------------------------------------------------------------------| 
B|--7-0-8-0-10-0-8-0-7-0-8-0-10-0-8-0-7-0-8-0-10-0-15-0-14-0-15-0-17-0-15----| 
G|---------------------------------------------------------------------------| 
D|---------------------------------------------------------------------------| (x2) 
A|---------------------------------------------------------------------------| 
E|---------------------------------------------------------------------------| 

(Guitar 2) 

e|---------------------------------------------------------------------------| 
B|---------------------------------------------------------------------------| 
G|---11------9------11------7------11-------14--------11---------------------|(x2) 
D|---x--(x8)-x-(x8)-x--(x8)-x-(x8)-x--(x8)---x-(x8)---x--(x8)----------------| 
A|---9-------7------9-------5------9--------12--------9----------------------| 
E|---------------------------------------------------------------------------| 

(Both Guitars) 

e|----------------------| 
B|----------------------| 
G|--11-------9----------| 
D|---x-(x3)--x--(x6)----| 
A|---9-------7----------| 
E|----------------------| 


(Pre Chorus Again But Only Bass) 


Chorus 

(Guitar 2) 

e|---------------------------------------------------------------------------| 
B|---------------------------------------------------------------------------| 
G|---------------------------------------------------------------------------| 
D|--5-------7-------9------4------5--7---------------------------------------| 
A|--5--(x8)-7-(x8)--9-(x8)-4-(x8)-5--7---------------------------------------| 
E|--3-------5-------7------2------3--5---------------------------------------| 

(Guitar 1) 

e|---------------------------------------------------------------------------| 
B|---------------------------------------------------------------------------| 
G|--4--------6--------7----------11----------4---------6---------------------| 
D|--x--------x--------x-----------x----------x---------x---------------------| (x2) 
A|--2--(x4)--4--(x4)--5--(x4)-----9---(x8)---2--(x8)---4---------------------| 
E|---------------------------------------------------------------------------| 

Outro 

e|---------------------------------------------------------------------------| 
B|---------------------------------------------------------------------------| 
G|-------7----------------------------------7--------------------------------| 
D|-------7--(x8)-7--------5--------7\-------7--------------------------------| 
A|-------5-------7--(x8)--5-(x4)---7\-------5--------------------------------| 
E|---------------5--------3--------5\----------------------------------------| 


************************************ 

| ^   Bend Up 
| \   Slide down 

************************************ 
  

top 5 | blink-182
top rock'n roll
Outras músicas do artista letras do(a) Blink-182
Top cifras »Top artistas »
Petaxxon Comunicação Online
Cifras.com.br - Melhor e mais completo site de cifras e tablaturas do Brasil
Mais de 1 milhão de acordes de músicas cadastradas desde 2003
As informações contidas no nosso site são colaborações de seus usuários e podem conter erros, sendo assim, não nos responsabilizamos sobre nenhuma destas.
close
menos
mais
close
Cor dos acordes:

Cor da letra:

 

save
close
close
 
redimensionar