Cifras e Tablaturas
Blitzkid

Blitzkid

Love Like Blood

Cifras Cancelar Versão de Impressão
cifras

Blitzkid - Love Like Blood

fixar na tela  
Exibindo: vídeo-aula ver clipes redimensionar

Tom:

  
E|---------------------------------------------------------| 
B|---------------------------------------------------------| 
G|---------------------------------------------------------|  (6x) 
D|---------------------------------------------------------| 
A|--1010101010101010—-1010101010101010--8888888888888888---| 
E|--8-8-8-8-8-8-8-8---1111111111111111—-6666666666666666---|  
 


Chorus 1: 
 
E|-----------------------------------------------------| 
B|--------------4-------------------------6------------| 
G|-----------5-----5-------------------7-----7---------| (2x) 
D|--------6-----------6-------------8-----------8------| 
A|-----6-----------------6-------8-----------------8---| 
E|--4-------------------------6------------------------| 
 
   
Chorus 2: 
 
E|--------------------------------------------------| 
B|--------------3h4---------4-------4---------------| 
G|--------5--------------5-------------5------------|  (2x) 
D|-----5-----5--------5----------5--------5------3--| 
A|--3-----------------------------------------1-----| 
E|--------------------------------------------------| 
 

Chorus 3: 
 
E|-----------------------------------------------------| 
B|--------------4-------------------------6------------| 
G|-----------5-----5-------------------7-----7---------| 
D|--------6-----------6-------------8-----------8------| 
A|-----6-----------------6-------8-----------------8---| 
E|--4-------------------------6------------------------| 
 
   
Chorus 4: 
 
E|---------------------------------------| 
B|---------------------------------------| 
G|-------8--------7--------5--------3----| 
D|-----8--------7--------5--------3------| 
A|---6-----6--5-----5--3-----3--1-----1--| 
E|---------------------------------------| 
 

Chorus 5: 
 
E|-------------------------------------1----------1---| 
B|--------------4-------------------------1-------1---| 
G|-----------5-----5----------------3--------3----3---| 
D|--------6-----------6----------3----------------3---| 
A|-----6-----------------6----1-------------------1---| 
E|---4------------------------------------------------| 
 

Distorsión:  
 
E|---------------------------------------------------------| 
B|---------------------------------------------------------| 
G|---------------------------------------------------------| 
D|--1010101010101010--1313131313131313--8888888888888888---| 
A|--1010101010101010—-1313131313131313--8888888888888888---| 
E|--8-8-8-8-8-8-8-8---1111111111111111—-6666666666666666---| (4x) 
 
 
E|------------------------------------------------------| 
B|------------------------------------------------------| 
G|------------------------------------------------------| 
D|--6------8------10101010101010101010101010101010-8----| 
A|--6------8------10101010101010101010101010101010-8----| 
E|--4------6------8-8-8-8-8-8-8-8-8-8-8-8-8-8-8-8--6----| (2x) 
 
 
E|-----------------------------------------------------------------------------------------| 
B|-----------------------------------------------------------------------------------------| 
G|-----------8--7--5-----------------------------8888888888888888--------------------------| 
D|---6---8---8--7--5--8----66666666---88888888---8888888888888888----8---1010101010101010--| 
A|---6---8---6--5--3--8----66666666---88888888---6666666666666666----8---1010101010101010--| 
E|---4---6------------6----44444444---66666666-----------------------6---8-8-8-8-8-8-8-8---| 
 


 La guitarra y el bajo juntos 
 
E|-----------------------------------------------------------| 
B|-----------------------------------------------------------| 
G|-------8-8-8-8-8-8-8-8-8-8-8-8-8-8-8-8---------------------| 
D|--8----8-8-8-8-8-8-8-8-8-8-8-8-8-8-8-8-8--1010101010101010-| 
A|--8----6-6-6-6-6-6-6-6-6-6-6-6-6-6-6-6-8--1010101010101010-| 
E|--6------------------------------------6--8-8-8-8-8-8-8-8--| (3x) 
 
  
 
E|------------------------------------------------------| 
B|------------------------------------------------------| 
G|------------------------------------------------------| 
D|--6------8------10101010101010101010101010101010-8----| 
A|--6------8------10101010101010101010101010101010-8----| 
E|--4------6------8-8-8-8-8-8-8-8-8-8-8-8-8-8-8-8--6----|(3x) 
 
 
E|--------------------------------------------------------------------------------------------------| 
B|--------------------------------------------------------------------------------------------------| 
G|-----------8--7--5--------------------------------------------------------------------------------| 
D|---6---8---8--7--5--8----66666666---88888888--66666666-88888888—-66666666-—88888888—-66666666--8--| 
A|---6---8---6--5--3--8----66666666---88888888--66666666-88888888--66666666--88888888—-66666666--8--| 
E|---4---6------------6----44444444---66666666--44444444-66666666--44444444--66666666--44444444--6--| 


Palm-mute                                         
 
E|----------------------------------------------------------------| 
B|----------------------------------------------------------------| 
G|----------------------------------------------------------------| 
D|----------------------------------------------------------------| 
A|--1010101010101010—-1010101010101010--8888888888888888—8-6-10---| 
E|--8-8-8-8-8-8-8-8---1111111111111111—-6666666666666666—6-4-8----| (3x) 
 

Palm-mute                                         
 
E|--------------------------------------------------------| 
B|--------------------------------------------------------| 
G|--------------------------------------------------------| 
D|--------------------------------------8888888888888888--| 
A|--1010101010101010—-1010101010101010--8888888888888888—-| 
E|--8-8-8-8-8-8-8-8---1111111111111111—-6666666666666666—-| 
 
 
E|-------------------------------------------------------| 
B|-------------------------------------------------------| 
G|-------------------------------------------------------| 
D|---6------8------10101010101010101010101010101010-8----| 
A|---6------8------10101010101010101010101010101010-8----| 
E|---4------6------8-8-8-8-8-8-8-8-8-8-8-8-8-8-8-8--6----|  (2x) 
 
 
E|--------------------------------------------------------------------------------------------------| 
B|--------------------------------------------------------------------------------------------------| 
G|-----------8--7--5--------------------------------------------------------------------------------| 
D|---6---8---8--7--5--8----66666666---88888888--66666666-88888888—-66666666-—88888888—-66666666--8--| 
A|---6---8---6--5--3--8----66666666---88888888--66666666-88888888--66666666--88888888—-66666666--8--| 
E|---4---6------------6----44444444---66666666--44444444-66666666--44444444--66666666--44444444--6--| 
  

top 5 | blitzkid
top rock'n roll
Outras músicas do artista letras do(a) Blitzkid
Top cifras »Top artistas »
Petaxxon Comunicação Online
Cifras.com.br - Melhor e mais completo site de cifras e tablaturas do Brasil
Mais de 1 milhão de acordes de músicas cadastradas desde 2003
As informações contidas no nosso site são colaborações de seus usuários e podem conter erros, sendo assim, não nos responsabilizamos sobre nenhuma destas.
close
menos
mais
close
Cor dos acordes:

Cor da letra:

 

save
close
close
 
redimensionar