Cifras e Tablaturas
Cifras Cancelar Versão de Impressão
cifras

Blue Öyster Cult - Screams

fixar na tela  
Exibindo: vídeo-aula ver clipes redimensionar

Tom:

  
Main riff 
e|---------------------------------------------------------------------------| 
B|---------------------------------------------------------------------------| 
G|---------------------------------------------------------------------------| 
D|-----2---------------------------------------------------------------------| 
A|---2----------0-4-3--------------------------------------------------------| 
E|-0-----3----2--------------------------------------------------------------| 

Part where it gets faster 
e|-------------------------| 
B|-------------------------| 
G|-------------------------| 
D|-------------------------| (x7 getting faster) 
A|----------0--------------| 
E|-0--3--2-----------------| 
  

top 5 | blue öyster cult
top heavy metal
Outras músicas do artista letras do(a) Blue Öyster Cult
Top cifras »Top artistas »
Petaxxon Comunicação Online
Cifras.com.br - Melhor e mais completo site de cifras e tablaturas do Brasil
Mais de 1 milhão de acordes de músicas cadastradas desde 2003
As informações contidas no nosso site são colaborações de seus usuários e podem conter erros, sendo assim, não nos responsabilizamos sobre nenhuma destas.
close
menos
mais
close
Cor dos acordes:

Cor da letra:

 

save
close
close
 
redimensionar