Cifras e Tablaturas
Blue Effect

Blue Effect

Cajovna

Cifras Cancelar Versão de Impressão
cifras

Blue Effect - Cajovna

fixar na tela  
Exibindo: vídeo-aula ver clipes redimensionar

Tom:

  

E|--10h12--10h12------|-------------------|-----------------| 
B|----------------10--|--10h12--10h12-----|-----------------| 
G|--------------------|----------------9--|--9h11--9h11-----| 
D|--------------------|-------------------|--------------9--| 
A|--------------------|-------------------|-----------------| 
E|--------------------|-------------------|-----------------| 

E|--8h10--8h10-----|-----------------|---------------| 
B|--------------8--|--8h10--8h10-----|---------------| 
G|-----------------|--------------7--|--7h9--7h9-----| 
D|-----------------|-----------------|------------7--| 
A|-----------------|-----------------|---------------| 
E|-----------------|-----------------|---------------| 

E|---------------|------------------|----------------|-------------7--| 
B|---------------|------------------|----------7--8--|--8p7--8h10-----| 
G|---------------|------------7--9--|--9p8--9--------|----------------| 
D|--7p6--7h9-10--|--10p9--10--------|----------------|----------------| 
A|---------------|------------------|----------------|----------------| 
E|---------------|------------------|----------------|----------------| 

E|--7h9--7h9-----|---------------|---------------|-----------------| 
B|------------7--|--7h9--7h9-----|---------------|-----------------| 
G|---------------|------------6--|--6h8--6h8-----|--------6--------| 
D|---------------|---------------|------------6--|--6-8-9---9-8-6--| 
A|---------------|---------------|---------------|-----------------| 
E|---------------|---------------|---------------|-----------------| 

E|--5h7--5h7-----|-----------------|----------------| 
B|------------5--|--7b8r7-5--------|----------------| 
G|---------------|-----------7--4--|--6b7r6-4-------| 
D|---------------|-----------------|----------7--4--| 
A|---------------|-----------------|----------------| 
E|---------------|-----------------|----------------| 

E|----------------|----------------|----------------|-------------4--| 
B|----------------|----------------|----------4--5--|--5p4--5--7-----| 
G|----------------|----------4--6--|--6p5--6--------|----------------| 
D|--4p3--4--6--7--|--7p6--7--------|----------------|----------------| 
A|----------------|----------------|----------------|----------------| 
E|----------------|----------------|----------------|----------------| 

E|--16h18--16h18------|--------------------|--------------------| 
B|----------------16--|--16h18--16h18------|--------------------| 
G|--------------------|----------------15--|--15h17--15h17------| 
D|--------------------|--------------------|----------------15--| 
A|--------------------|--------------------|--------------------| 
E|--------------------|--------------------|--------------------| 

E|--14h16--14h16------|------------------------|-----------------------------| 
B|----------------14--|--16b17r16--14----------|-----------------------------| 
G|--------------------|----------------16--13--|--15b16r15--13---------------| 
D|--------------------|------------------------|----------------16--13~~~s0--| 
A|--------------------|------------------------|-----------------------------| 
E|--------------------|------------------------|-----------------------------| 

E|--------------------------|------------------------| 
B|--------------------------|------------------------| 
G|--------------------------|------------------------| 
D|--1--0--1--3--4-----4--6--|--4------6s8-----8--10--| 
A|-----------------4--------|--------------8---------| 
E|--------------------------|------------------------| 

E|-------------------------------|-------------| 
B|-------------------------------|-------------| 
G|-------------------------------|-------------| 
D|--8--7--8--10--11------11--13--|--11--13s15--| 
A|-------------------11----------|-------------| 
E|-------------------------------|-------------| 

pm pm pm 
E|--13h15--13h15------|-----------13--------|---------------------------| 
B|----------------13--|--13-15-16-15b18r15--|--16--15--13--15--15-------| 
G|--------------------|---------------------|----------------------7~~--| 
D|--------------------|---------------------|---------------------------| 
A|--------------------|---------------------|---------------------------| 
E|--------------------|---------------------|---------------------------| 

E|--11h13--11h13------|---------------------------------| 
B|----------------11--|--11-13-13b14r13p11----11--------| 
G|--------------------|--------------------13----13-10--| 
D|--------------------|---------------------------------| 
A|--------------------|---------------------------------| 
E|--------------------|---------------------------------| 

E|----------------------------------|---------------------------| 
B|----------------------------------|---------------------------| 
G|--10-12-13p12h13----10-12-10------|-----------10h12p10--------| 
D|-----------------------------10---|--10h12h13----------12p10--| 
A|----------------------------------|---------------------------| 
E|----------------------------------|---------------------------| 

E|-------------------|-------------------|-------------------|-------------------| 
B|-------------------|-------------------|-------------------|-----------1--3----| 
G|-------------------|-------------------|-----------2--3----|--3--2--3----------| 
D|-------------------|-----------3--5----|--5--4--5----------|-------------------| 
A|--3--2--3--5--6----|--6--5--6----------|-------------------|-------------------| 
E|-------------------|-------------------|-------------------|-------------------| 

E|--10h-12--10h-12--------|---------------------|-----------------| 
B|------------------10----|--10h12--10h12-------|-----------------| 
G|------------------------|----------------9----|--9h11--9h11-----| 
D|------------------------|---------------------|--------------9--| 
A|------------------------|---------------------|-----------------| 
E|------------------------|---------------------|-----------------| 

E|--8h10--8h10-------|---------------------|--------------------------| 
B|--------------8----|--10b11r10-8---------|--------------------------| 
G|-------------------|--------------10--7--|--9b10r9--7---------------| 
D|-------------------|---------------------|-------------10--7~~~~s0--| 
A|-------------------|---------------------|--------------------------| 
E|-------------------|---------------------|--------------------------| 

E|--------------------------|-----------------------| 
B|--------------------------|-----------------------| 
G|--------------------------|-----------------------| 
D|--------------------------|-----------------------| 
A|-----------2--3-----3--5--|--3------5s7-----7--9--| 
E|--5--4--5--------3--------|--------------7--------| 

E|------------------------------|-------------| 
B|------------------------------|-------------| 
G|------------------------------|-------------| 
D|------------------------------|-------------| 
A|--7--6--7--9--10------10--12--|--10--12s14--| 
E|------------------10----------|-------------| 

E|--7--9--7--9-----|-----------------|-----------------| 
B|--------------7--|--7--9--7--9-----|-----------------| 
G|-----------------|--------------6--|--6--8--6--8-----| 
D|-----------------|-----------------|--------------6--| 
A|-----------------|-----------------|-----------------| 
E|-----------------|-----------------|-----------------| 

E|--5--7--5--7-----|-----------------------| 
B|--------------5--|--5-7-7b8r7p5---5------| 
G|-----------------|--------------7---7-4--| 
D|-----------------|-----------------------| 
A|-----------------|-----------------------| 
E|-----------------|-----------------------| 

E|-----------------------|-------------------| 
B|-----------------------|-------------------| 
G|--4-6-7p6h7--4-6-4-----|--------4h6p4------| 
D|-------------------4---|--4h6h7-------6p4--| 
A|-----------------------|-------------------| 
E|-----------------------|-------------------| 

E|-------------------|-------------------|-------------------|-------------------| 
B|-------------------|-------------------|-------------------|-------------------| 
G|-------------------|-------------------|-------------------|-------------------| 
D|-------------------|-------------------|-----------1--2----|--2--1--2--4--6----| 
A|-------------------|-----------2--4----|--4--3--4----------|-------------------| 
E|--2--1--2--4--5----|--5--4--5----------|-------------------|-------------------| 

E|--16--18--16--18--------|------------------------------------------| 
B|------------------16----|--16---18---18b19r18---18---16---14---16--| 
G|------------------------|------------------------------------------| 
D|------------------------|------------------------------------------| 
A|------------------------|------------------------------------------| 
E|------------------------|------------------------------------------| 

************************************ 

| h  Hammer-on 
| p  Pull-off 
| r  Release 
| b  Bend 
| ~  Vibrato 
| s  slide 

************************************ 
  

top 5 | blue effect
top rock'n roll
Outras músicas do artista letras do(a) Blue Effect
Top cifras »Top artistas »
Petaxxon Comunicação Online
Cifras.com.br - Melhor e mais completo site de cifras e tablaturas do Brasil
Mais de 1 milhão de acordes de músicas cadastradas desde 2003
As informações contidas no nosso site são colaborações de seus usuários e podem conter erros, sendo assim, não nos responsabilizamos sobre nenhuma destas.
close
menos
mais
close
Cor dos acordes:

Cor da letra:

 

save
close
close
 
redimensionar