Cifras e Tablaturas
Blueline Medic

Blueline Medic

Making The Noveau Riche

Cifras Cancelar Versão de Impressão Print

Blueline Medic - Making The Noveau Riche

Tom:

  • 0:00 / 0:00
  			Australia 
-------------------------------------------------------------------------------  
MAKING THE NOVEAU RICHE - Blueline Medic  
-------------------------------------------------------------------------------  
  
 
e|---------------------------------------------------------------------------|  
B|---------------------------------------------------------------------------|  
G|---------------------------------------------------------------------------|  
D|-8888888888888888666666666666666644444444444444444444444444444444----------|  
A|-8888888888888888666666666666666644444444444444444444444444444444----------|  
E|-6666666666666666444444444444444422222222222222222222222222222222----------|  
pm--------------------------------------------------------------  
  
e|---------------------------------------------------------------------------|  
B|---------------------------------------------------------------------------|  
G|-66666666666666666666666666666666------------------------------------------|  
D|-6666666666666666666666666666666644444444444444444444444444444444----------|  
A|-4444444444444444444444444444444444444444444444444444444444444444----------|  
E|---------------------------------22222222222222222222222222222222----------|  
 
verse 1X  
 
chorus 2X  
 
Guitar 1: 2X  
e|---------------------------------------------------------------------------|  
B|---------------------------------------------------------------------------|  
G|---------------------------------------------------------------------------|  
D|-8~---------------------6~-----------------------4~~-----------------------|  
A|-8~---------------------6~-----------------------4~~-----------------------|  
E|-6~---------------------4~-----------------------4~~-----------------------|  
 
Guitar 2 (sort of palm muted): (listen for the timing)  
e|---------------------------------------------------------------------------|  
B|---------------------------------------------------------------------------|  
G|-6-6-6-6-6-6-6-6-6-6-6-6-8-8-8-8-8-8-9-9-9-9-9-9--6--6--6--6--6-5---5-5-6--|  
D|---------------------------------------------------------------------------|  
A|---------------------------------------------------------------------------|  
E|---------------------------------------------------------------------------|  
 
e|---------------------------------------------------------------------------|  
B|---------------------------------------------------------------------------|  
G|-6-5---5-5-6------6-5---5-5-6--(this little bit keeps going until the pause)  
D|---------------------------------------------------------------------------|  
A|---------------------------------------------------------------------------|  
E|---------------------------------------------------------------------------| 
 

    	

enviado porenviado por: anônimo
cifra enviadaCorrigida por: sem correções
logo top cifrasComente
ico música do artistaMúsicas deste artista
ico curtiuCurtiu?
ico destaqueDestaque
Petaxxon Comunicação Online

Cifras.com.br - Melhor e mais completo site de cifras e tablaturas do Brasil Mais de 1 milhão de acordes de músicas cadastradas desde 2003
As informações contidas no nosso site são colaborações de seus usuários e podem conter erros, sendo assim, não nos responsabilizamos sobre nenhuma destas.

close
menos
mais
close
Cor dos acordes:

Cor da letra:

close
Alinhar acordes a direita Alinhar acordes a esquerda Alinhar acordes em baixo Alinhar acordes no topo
close
  Mostrar todos os acordes Esconder acordes muito fáceis Esconder acordes fáceis Esconder acordes intermediários
redimensionar
glossário