Cifras e Tablaturas
Bo Kaspers Orkester

Bo Kaspers Orkester

Kom Och Håll Om Mig

Cifras Cancelar Versão de Impressão
cifras

Bo Kaspers Orkester - Kom Och Håll Om Mig

fixar na tela  
Exibindo: vídeo-aula ver clipes redimensionar
  
Intro  
e|------------------------------------------------------| 
B|------------------------------------------------------| 
G|-------0-3------0---0---0---------0-3------0---0---0--| 
D|--0-h3-----0-h3--------------0-h3-----0-h3------------| 
A|------------------------------------------------------| 
E|------------------3---3----3-----------------3---3----| 

Verse (x6) 
e|--------------------------------------------------------| 
B|--------------------------------------------------------| 
G|---------0-3------0---0---0---------0-3------0---0---0--| 
D|----0-h3-----0-h3--------------0-h3-----0-h3------------| 
A|--------------------------------------------------------| 
E|--3-----------------3---3----3-----------------3---3----| 

Chorus 
e|----3-----3-----3---3-----3-----3---3-----3-----3---3-----3-----3---3-----3-----3---3------| 
B|------3-----3---------3-----3---------3-----3---------3-----3---------1-----1-------1------| 
G|------------------------------------------------------------------------------------0------| 
D|--5-----5-----5---3-----3-----3---5-----5-----5---3-----3-----3---3-----3-----3------------| 
A|------------------------------------------------------------------------------------3------| 
E|-------------------------------------------------------------------------------------------| 

Verse (x7) 
e|--------------------------------------------------------| 
B|--------------------------------------------------------| 
G|---------0-3------0---0---0---------0-3------0---0---0--| 
D|----0-h3-----0-h3--------------0-h3-----0-h3------------| 
A|--------------------------------------------------------| 
E|--3-----------------3---3----3-----------------3---3----| 

Chorus 
e|----3-----3-----3---3-----3-----3---3-----3-----3---3-----3-----3---3-----3-----3---3------| 
B|------3-----3---------3-----3---------3-----3---------3-----3---------1-----1-------1------| 
G|------------------------------------------------------------------------------------0------| 
D|--5-----5-----5---3-----3-----3---5-----5-----5---3-----3-----3---3-----3-----3------------| 
A|------------------------------------------------------------------------------------3------| 
E|-------------------------------------------------------------------------------------------| 

Verse (x14) 
e|--------------------------------------------------------| 
B|--------------------------------------------------------| 
G|---------0-3------0---0---0---------0-3------0---0---0--| 
D|----0-h3-----0-h3--------------0-h3-----0-h3------------| 
A|--------------------------------------------------------| 
E|--3-----------------3---3----3-----------------3---3----| 

Chorus 
e|----3-----3-----3---3-----3-----3---3-----3-----3---3-----3-----3---3-----3-----3---3------| 
B|------3-----3---------3-----3---------3-----3---------3-----3---------1-----1-------1------| 
G|------------------------------------------------------------------------------------0------| 
D|--5-----5-----5---3-----3-----3---5-----5-----5---3-----3-----3---3-----3-----3------------| 
A|------------------------------------------------------------------------------------3------| 
E|-------------------------------------------------------------------------------------------| 

Outro 
e|-----------------------------------------------------------------------------------------------x--| 
B|-----------------------------------------------------------------------------------------------x--| 
G|---------0-3------0---0---0---------0-3-0---0-0---------0-3------0---0---0---------0-3-0-3-0---0--| 
D|----0-h3-----0-h3--------------0-h3----------------0-h3-----0-h3--------------0-h3-----------3-0--| 
A|-----------------------------------------------------------------------------------------------2--| 
E|--3-----------------3---3----3-------------3-----3-----------------3---3----3----------------3-3--| 


************************************ 

| h  Hammer-on 
| x  Dead note 

************************************ 
  

top 5 | bo kaspers orkester
top pop music
Outras músicas do artista letras do(a) Bo Kaspers Orkester
Top cifras »Top artistas »
Petaxxon Comunicação Online
Cifras.com.br - Melhor e mais completo site de cifras e tablaturas do Brasil
Mais de 1 milhão de acordes de músicas cadastradas desde 2003
As informações contidas no nosso site são colaborações de seus usuários e podem conter erros, sendo assim, não nos responsabilizamos sobre nenhuma destas.
close
menos
mais
close
Cor dos acordes:

Cor da letra:

 

save
close
close
 
redimensionar