Cifras e Tablaturas
Bonga

Bonga

Mona Ki Ngi Xica (ver. Acoustic)

Cifras Cancelar Versão de Impressão
cifras

Bonga - Mona Ki Ngi Xica (ver. Acoustic)

fixar na tela  
Exibindo: vídeo-aula ver clipes redimensionar

Tom:

  
Guitar 1 

Verse 

e|----------------------------------------------------------| 
B|----------------------------------------------------------| 
G|----------------------------------------------------------| 
D|-----4-------7--------------------------------------------| x2 
A|---4-------7----------------------------------------------| 
E|-2-----2-5-----5------------------------------------------| 

e|----------------------------------------------------------| 
B|----------------------------------------------------------| 
G|---------------------4-------7----------------------------| 
D|-----4-------7-----4-------7------------------------------| 
A|---4-------7-----2-----2-5-----5--------------------------| 
E|-2-----2-5-----5------------------------------------------| 

Guitar 2 

Verse 

e|-5-5-5---------------------------------------------------------------------| 
B|-------5-5-7--7------------------------------------------------------------| 
G|-----------------6---7-7/9-7-6------7-7----9-7-----------------------------| 
D|------------------------------------7-7----9-7-----------------------------| 
A|----------------------------------5------7---------------------------------| 
E|---------------------------------------------------------------------------| 

e|---------------------------------------------------------------------------| 
B|-7--7--------------5-5-5---------------------------------------------------| 
G|------6---6-7--7-7---------------------------------------------------------| 
D|---------------------------------------------------------------------------| 
A|---------------------------------------------------------------------------| 
E|---------------------------------------------------------------------------| 

e|---------------------------------------------------------------------------| 
B|-7-------------------------------------------------------------------------| 
G|---7---~6------------------------------------------------------------------| 
D|---------------------------------------------------------------------------| 
A|---------------------------------------------------------------------------| 
E|---------------------------------------------------------------------------| 

e|-5--5-----4-5-5/7-5-4-5----------------------------------------------------| 
B|------7-----------------7--------------------------------------------------| 
G|---------------------------------------------------------------------------| 
D|---------------------------------------------------------------------------| 
A|---------------------------------------------------------------------------| 
E|---------------------------------------------------------------------------| 
  

top 5 | bonga
top rock'n roll
Outras músicas do artista letras do(a) Bonga
Top cifras »Top artistas »
Petaxxon Comunicação Online
Cifras.com.br - Melhor e mais completo site de cifras e tablaturas do Brasil
Mais de 1 milhão de acordes de músicas cadastradas desde 2003
As informações contidas no nosso site são colaborações de seus usuários e podem conter erros, sendo assim, não nos responsabilizamos sobre nenhuma destas.
close
menos
mais
close
Cor dos acordes:

Cor da letra:

 

save
close
close
 
redimensionar