Cifras e Tablaturas
Borns

Borns

Electric Love (acoustic)

Cifras Cancelar Versão de Impressão
cifras

Borns - Electric Love (acoustic)

fixar na tela  
Exibindo: vídeo-aula ver clipes redimensionar
  
Main Riff 
e|-------------------| 
B|-------------------| 
G|-------------------| 
D|2--0-----0---------| 
A|------2-----2--0---| 
E|------------------3| 

Intro 
(1st and 2nd times) 
e|3-----0-----------3-----0-----------| 
B|---------3--0--------------3--0-----| 
G|---------------0-----------------0--| 
D|------------------------------------| 
A|------------------------------------| 
E|------------------------------------| 

(3rd time with thump on 1 and string smack on 4) 

(4th time with riff) 
e|3-----0-----------------------------| 
B|---------3--0-----------------------| 
G|------------------------------------| 
D|------------------2--0-----0--------| 
A|------------------------2-----2--0--| 
E|---------------3--------------------| 

Strumming (2x) 
G    Am    Em    Riff 
     
verse 1 

  G                                    G                 Am 
 Can-               dy                             She's sweet   like  
e|------------------------------------|------------------3--------2--------| 
B|3-----------------0-----------------|------------------------------------| 
G|0-----------------------------------|---------------0--------------------| 
D|0-----------------------------------|------------------------------------| 
A|---------x-----------------x--------|---------x--------0--------x-----0--| 
E|3--------x-----3-----------x-----3--|3--------x-----3-----------x--------| 

  Em                                   Em   
  Can      dy       in       my    veins     
e|0-----------------------------------|------------------------------------| 
B|---------0--------0-----------------|------------------------------------| 
G|---------------------------2-----2~~|4-----------------------------------| 
D|------------------------------------|------------------2--0-----0--------| 
A|---------x-----------------x--------|---------x--------------2--x--2--0--| 
E|0--------x-----0-----------x-----0--|0--------x-----3-----------x--------| 

  G                                    G                 Am 
 Bab-               y                               I'm dying    for  
e|------------------------------------|------------------3--------2--------| 
B|3-----------------0-----------------|------------------------------------| 
G|0-----------------------------------|---------------0--------------------| 
D|0-----------------------------------|------------------------------------| 
A|---------x-----------------x--------|---------x--------0--------x-----0--| 
E|3--------x-----3-----------x-----3--|3--------x-----3-----------x--------| 

  Em                                   Em   
  an-      noth-     er      taste     
e|0-----------------------------------|------------------------------------| 
B|---------0--------0-----------------|------------------------------------| 
G|---------------------------2/4\2-0--|------------------------------------| 
D|------------------------------------|------------------2--0-----0--------| 
A|---------x-----------------x--------|---------x--------------2--x--2--0--| 
E|0--------x-----0-----------x-----0--|0--------x-----3-----------x--------| 

Pre Chorus 

  C                                    G                          D 
        and every night      my        mind is running around     her       
e|------------------------------------|------------------------------------| 
B|---------------------------0--------|---------------------------0--------| 
G|------0--0--0--0--0-----------------|0-----0-----------0-----------------| 
D|------------------------------------|---------2--2--0-----------------0--| 
A|3--------x-----3-----------x-----3--|---------x-----------------x--------| 
E|---------x-----------------x--------|3--------x-----3-----------x--------| 

  C                                    G                          D 
  thunder's getting lou-     der   and lou-     der   
e|------------------------------------|------------------------------------| 
B|------------------------------------|------------------------------------| 
G|------0--0--------0-----------------|0-----------------------------------| 
D|------------2--0-----------2-----0--|---------2--------0--------------0--| 
A|3--------x-----3-----------x-----3--|---------x-----------------x--------| 
E|---------x-----------------x--------|3--------x-----3-----------x--------| 

Chorus 

  G           C           D            G           C              D     
Baby you're like lightning in a bottle I can't let you go now that I got it    
e|3--2--0-----0--0--0-----0-----------|x-----0--3--5--5--5--3--5--7-----3--| 
B|0--------3--1--------3-----3--------|0--3--------------------------------| 
G|0-----------0-----------------------|0-----------------------------------| 
D|0-----------2-----------0--------0--|0--------------------------0-----0--| 
A|x--------x--3--------------x--------|x--------x-----3-----3-----x--------| 
E|3--------x-----------------x--------|3--------x-----------------x--------| 

  Em                                   C                       G 
  And all                    I         need     is       to       be 
e|5/7---5--3-----5--3--------2--------|0-----------------------------------| 
B|------------------------------------|---------3--------------------------| 
G|------------------------------------|------------------4\\\\\2--0--------| 
D|------------------------------------|---------2--------------------------| 
A|---------x-----------------x--------|---------x-----------------x--------| 
E|0--------x-----0-----------x-----0--|0--------x-----3-----------x--------| 

  D                                                               
  struck            by                 your     e-       lec-     tric 
e|------------------------------------|------------------0--------3--------| 
B|------------------0-----------------|1--------3--------------------------| 
G|2-----------------------------------|------------------------------------| 
D|------------------------------------|------------------------------------| 
A|---------x-----------------x--------|---------x-----------------x--------| 
E|0--------x-----0-----------x-----0--|0--------x-----3-----------x--------| 

  G                                    G                    Am 
  love! 
e|7-----7--7--------------7--7-----7--|7-----7--7--------5--------5--------| 
B|0-----0--0--------------0--0-----0--|0-----0--0--------5--------5--------| 
G|0-----0--0--------------0--0-----0--|0-----0--0--------5--------5--------| 
D|0-----0--0--------------0--0-----0--|0-----0--0--------7--------7--------| 
A|5-----5--x--------------5--x-----5--|5-----5--x--------7--------x--------| 
E|3-----3--x-----3--3-----3--x-----3--|3-----3--x-----3--5--------x-----5--| 

  Em                                                         
                                       Baby     your  electric 
e|0-----0--0--------------0--0-----0--|0--------0--------0-----------------| 
B|0-----0--0--------------0--0-----0--|------3--------3--------3-----0-----| 
G|0-----0--0--------------0--0-----0--|------------------------------------| 
D|2-----2--2--------------2--2-----2--|------------------------------------| 
A|2-----2--x--------------2--x-----2--|---------x-----------------x--------| 
E|0-----0--x-----0--0-----0--x-----0--|0--------x-----0--0--------x--------| 

  G                                    G                    Am 
  love! 
e|7-----7--7--------------7--7-----7--|7-----7--7--------5--------5--------| 
B|0-----0--0--------------0--0-----0--|0-----0--0--------5--------5--------| 
G|0-----0--0--------------0--0-----0--|0-----0--0--------5--------5--------| 
D|0-----0--0--------------0--0-----0--|0-----0--0--------7--------7--------| 
A|5-----5--x--------------5--x-----5--|5-----5--x--------7--------x--------| 
E|3-----3--x-----3--3-----3--x-----3--|3-----3--x-----3--5--------x-----5--| 

  Em                                                         
                                        
e|0-----0--0--------------0--0-----0--|0-----0--0--------------------------| 
B|0-----0--0--------------0--0-----0--|0-----0--0--------------------------| 
G|0-----0--0--------------0--0-----0--|0-----0--0--------------------------| 
D|2-----2--2--------------2--2-----2--|2-----2--2--------2--0-----0--------| 
A|2-----2--x--------------2--x-----2--|2-----2--2--------------2-----2--0--| 
E|0-----0--x-----0--0-----0--x-----0--|0-----0--0-----3--------------------| 

verse 2 (identical) 

  G                                    G                 Am 
  Drown             me                              you make     my  
e|------------------------------------|------------------3--------2--------| 
B|3-----------------0-----------------|------------------------------------| 
G|0-----------------------------------|---------------0--------------------| 
D|0-----------------------------------|------------------------------------| 
A|---------x-----------------x--------|---------x--------0--------x-----0--| 
E|3--------x-----3-----------x-----3--|3--------x-----3-----------x--------| 

  Em                                   Em   
  heart    beat    like     the    rain    
e|0-----------------------------------|------------------------------------| 
B|---------0--------0-----------------|------------------------------------| 
G|---------------------------2-----2~~|4-----------------------------------| 
D|------------------------------------|------------------2--0-----0--------| 
A|---------x-----------------x--------|---------x--------------2--x--2--0--| 
E|0--------x-----0-----------x-----0--|0--------x-----0-----------x-----0--| 

  G                                    G                 Am 
 Surround           me                               hold me     deep 
e|------------------------------------|------------------3--------2--------| 
B|3-----------------0-----------------|------------------------------------| 
G|0-----------------------------------|---------------0--------------------| 
D|0-----------------------------------|------------------------------------| 
A|---------x-----------------x--------|---------x--------0--------x-----0--| 
E|3--------x-----3-----------x-----3--|3--------x-----3-----------x--------| 

  Em                                   Em   
  be-    neath     your      waves   
e|0-----------------------------------|------------------------------------| 
B|---------0--------0-----------------|------------------------------------| 
G|---------------------------2/4\2-0--|------------------------------------| 
D|------------------------------------|------------------2--0-----0--------| 
A|---------x-----------------x--------|---------x--------------2--x--2--0--| 
E|0--------x-----0-----------x-----0--|0--------x-----3-----------x--------| 

PreChorus 2 (identical) 

  C                                    G                          D 
        and every night      my        mind is running around     her       
e|------------------------------------|------------------------------------| 
B|---------------------------0--------|---------------------------0--------| 
G|------0--0--0--0--0-----------------|0-----0-----------0-----------------| 
D|------------------------------------|---------2--2--0-----------------0--| 
A|3--------x-----3-----------x-----3--|---------x-----------------x--------| 
E|---------x-----------------x--------|3--------x-----3-----------x--------| 

  C                                    G                          D 
  thunder's getting lou-     der   and lou-     der   
e|------------------------------------|------------------------------------| 
B|------------------------------------|------------------------------------| 
G|------0--0--------0-----------------|0-----------------------------------| 
D|------------2--0-----------2-----0--|---------2--------0--------------0--| 
A|3--------x-----3-----------x-----3--|---------x-----------------x--------| 
E|---------x-----------------x--------|3--------x-----3-----------x--------| 

Chorus 2 (identical) 

  G           C           D            G           C              D     
Baby you're like lightning in a bottle I can't let you go now that I got it    
e|3--2--0-----0--0--0-----0-----------|x-----0--3--5--5--5--3--5--7-----3--| 
B|0--------3--1--------3-----3--------|0--3--------------------------------| 
G|0-----------0-----------------------|0-----------------------------------| 
D|0-----------2-----------0--------0--|0--------------------------0-----0--| 
A|x--------x--3--------------x--------|x--------x-----3-----3-----x--------| 
E|3--------x-----------------x--------|3--------x-----------------x--------| 

  Em                                   C                       G 
  And all                    I         need     is       to       be 
e|5/7---5--3-----5--3--------2--------|0-----------------------------------| 
B|------------------------------------|---------3--------------------------| 
G|------------------------------------|------------------4\\\\\2--0--------| 
D|------------------------------------|---------2--------------------------| 
A|---------x-----------------x--------|---------x-----------------x--------| 
E|0--------x-----0-----------x-----0--|0--------x-----3-----------x--------| 

  D                                                               
  struck            by                 your     e-       lec-     tric 
e|------------------------------------|------------------0--------3--------| 
B|------------------0-----------------|1--------3--------------------------| 
G|2-----------------------------------|------------------------------------| 
D|------------------------------------|------------------------------------| 
A|---------x-----------------x--------|---------x-----------------x--------| 
E|0--------x-----0-----------x-----0--|0--------x-----3-----------x--------| 

  G                                    G                    Am 
  love! 
e|7-----7--7--------------7--7-----7--|7-----7--7--------5--------5--------| 
B|0-----0--0--------------0--0-----0--|0-----0--0--------5--------5--------| 
G|0-----0--0--------------0--0-----0--|0-----0--0--------5--------5--------| 
D|0-----0--0--------------5--5-----5--|0-----0--5--------7--------7--------| 
A|5-----5--x--------------0--x-----0--|5-----5--x--------7--------x--------| 
E|3-----3--x-----3--3-----3--x-----3--|3-----3--x-----3--5--------x-----5--| 

  Em                                                         
                                       Baby     your  electric 
e|0-----0--0--------------0--0-----0--|0--------0--------0-----------------| 
B|0-----0--0--------------0--0-----0--|------3--------3--------3-----0-----| 
G|0-----0--0--------------0--0-----0--|------------------------------------| 
D|2-----2--2--------------2--2-----2--|------------------------------------| 
A|2-----2--x--------------2--x-----2--|---------x-----------------x--------| 
E|0-----0--x-----0--0-----0--x-----0--|0--------x-----0--0--------x--------|  

  G                                    G                    Am 
  love! 
e|7-----7--7--------------7--7-----7--|7-----7--7--------5--------5--------| 
B|0-----0--0--------------0--0-----0--|0-----0--0--------5--------5--------| 
G|0-----0--0--------------0--0-----0--|0-----0--0--------5--------5--------| 
D|0-----0--0--------------0--0-----0--|0-----0--0--------7--------7--------| 
A|5-----5--x--------------5--x-----5--|5-----5--x--------7--------x--------| 
E|3-----3--x-----3--3-----3--x-----3--|3-----3--x-----3--5--------x-----5--| 

  Em                                                         
                                        
e|0-----0--0--------------0--0-----0--|0-----0--0--------------------------| 
B|0-----0--0--------------0--0-----0--|0-----0--0--------------------------| 
G|0-----0--0--------------0--0-----0--|0-----0--0--------------------------| 
D|2-----2--2--------------2--2-----2--|2-----2--2--------2--0-----0--------| 
A|2-----2--x--------------2--x-----2--|2-----2--2--------------2-----2--0--| 
E|0-----0--x-----0--0-----0--x-----0--|0-----0--0-----3--------------------| 

Strumming 2 (2x) 
G    Am    Em    Riff 

************************************ 

| x  Dead note 
| ~  Slur 
| /  Slide up 
| \  Slide down 

************************************ 
  

cifra enviadasem correções
enviado porenviada por:fernsantana
top 5 | borns
top rock'n roll
Outras músicas do artista letras do(a) Borns
Top cifras »Top artistas »
Petaxxon Comunicação Online
Cifras.com.br - Melhor e mais completo site de cifras e tablaturas do Brasil
Mais de 1 milhão de acordes de músicas cadastradas desde 2003
As informações contidas no nosso site são colaborações de seus usuários e podem conter erros, sendo assim, não nos responsabilizamos sobre nenhuma destas.
close
menos
mais
close
Cor dos acordes:

Cor da letra:

 

save
close
close
 
redimensionar